  0
SECTION
  2
HEADER
  9
$ACADVER
  1
AC1018
  9
$ACADMAINTVER
 70
   104
  9
$DWGCODEPAGE
  3
ANSI_1252
  9
$LASTSAVEDBY
  1
user
  9
$INSBASE
 10
0.0
 20
0.0
 30
0.0
  9
$EXTMIN
 10
-136.1187294016335
 20
-90.83440570086338
 30
0.0
  9
$EXTMAX
 10
1893.809610253561
 20
991.1190774369938
 30
0.0
  9
$LIMMIN
 10
0.0
 20
0.0
  9
$LIMMAX
 10
420.0
 20
297.0
  9
$ORTHOMODE
 70
     0
  9
$REGENMODE
 70
     1
  9
$FILLMODE
 70
     1
  9
$QTEXTMODE
 70
     0
  9
$MIRRTEXT
 70
     0
  9
$LTSCALE
 40
1.0
  9
$ATTMODE
 70
     1
  9
$TEXTSIZE
 40
0.3937
  9
$TRACEWID
 40
1.0
  9
$TEXTSTYLE
  7
\U+C2A4\U+D0C0\U+C77C2
  9
$CLAYER
  8
0
  9
$CELTYPE
  6
ByLayer
  9
$CECOLOR
 62
   256
  9
$CELTSCALE
 40
1.0
  9
$DISPSILH
 70
     0
  9
$DIMSCALE
 40
1.0
  9
$DIMASZ
 40
0.2
  9
$DIMEXO
 40
0.1
  9
$DIMDLI
 40
0.039
  9
$DIMRND
 40
0.0
  9
$DIMDLE
 40
0.0
  9
$DIMEXE
 40
0.2
  9
$DIMTP
 40
0.0
  9
$DIMTM
 40
0.0
  9
$DIMTXT
 40
2.5
  9
$DIMCEN
 40
0.039
  9
$DIMTSZ
 40
0.0
  9
$DIMTOL
 70
     0
  9
$DIMLIM
 70
     0
  9
$DIMTIH
 70
     0
  9
$DIMTOH
 70
     0
  9
$DIMSE1
 70
     0
  9
$DIMSE2
 70
     0
  9
$DIMTAD
 70
     1
  9
$DIMZIN
 70
     8
  9
$DIMBLK
  1

  9
$DIMASO
 70
     1
  9
$DIMSHO
 70
     1
  9
$DIMPOST
  1

  9
$DIMAPOST
  1

  9
$DIMALT
 70
     0
  9
$DIMALTD
 70
     2
  9
$DIMALTF
 40
0.0394
  9
$DIMLFAC
 40
1.0
  9
$DIMTOFL
 70
     1
  9
$DIMTVP
 40
1.0
  9
$DIMTIX
 70
     0
  9
$DIMSOXD
 70
     0
  9
$DIMSAH
 70
     0
  9
$DIMBLK1
  1

  9
$DIMBLK2
  1

  9
$DIMSTYLE
  2
DIN
  9
$DIMCLRD
 70
     0
  9
$DIMCLRE
 70
     0
  9
$DIMCLRT
 70
     0
  9
$DIMTFAC
 40
1.0
  9
$DIMGAP
 40
0.05
  9
$DIMJUST
 70
     0
  9
$DIMSD1
 70
     0
  9
$DIMSD2
 70
     0
  9
$DIMTOLJ
 70
     1
  9
$DIMTZIN
 70
     0
  9
$DIMALTZ
 70
     0
  9
$DIMALTTZ
 70
     0
  9
$DIMUPT
 70
     0
  9
$DIMDEC
 70
     4
  9
$DIMTDEC
 70
     4
  9
$DIMALTU
 70
     2
  9
$DIMALTTD
 70
     2
  9
$DIMTXSTY
  7
STANDARD
  9
$DIMAUNIT
 70
     0
  9
$DIMADEC
 70
     0
  9
$DIMALTRND
 40
0.0
  9
$DIMAZIN
 70
     0
  9
$DIMDSEP
 70
    46
  9
$DIMATFIT
 70
     3
  9
$DIMFRAC
 70
     0
  9
$DIMLDRBLK
  1

  9
$DIMLUNIT
 70
     2
  9
$DIMLWD
 70
    -2
  9
$DIMLWE
 70
    -2
  9
$DIMTMOVE
 70
     0
  9
$LUNITS
 70
     3
  9
$LUPREC
 70
     4
  9
$SKETCHINC
 40
1.0
  9
$FILLETRAD
 40
0.59
  9
$AUNITS
 70
     0
  9
$AUPREC
 70
     0
  9
$MENU
  1
.
  9
$ELEVATION
 40
0.0
  9
$PELEVATION
 40
0.0
  9
$THICKNESS
 40
0.0
  9
$LIMCHECK
 70
     0
  9
$CHAMFERA
 40
0.0
  9
$CHAMFERB
 40
0.0
  9
$CHAMFERC
 40
0.0
  9
$CHAMFERD
 40
0.0
  9
$SKPOLY
 70
     0
  9
$TDCREATE
 40
2454393.137688252
  9
$TDUCREATE
 40
2454393.346021586
  9
$TDUPDATE
 40
2458464.608671736
  9
$TDUUPDATE
 40
2458464.817005070
  9
$TDINDWG
 40
0.7741960880
  9
$TDUSRTIMER
 40
0.7741950116
  9
$USRTIMER
 70
     1
  9
$ANGBASE
 50
0.0
  9
$ANGDIR
 70
     0
  9
$PDMODE
 70
     0
  9
$PDSIZE
 40
0.0
  9
$PLINEWID
 40
0.0
  9
$SPLFRAME
 70
     0
  9
$SPLINETYPE
 70
     6
  9
$SPLINESEGS
 70
     8
  9
$HANDSEED
  5
201D
  9
$SURFTAB1
 70
     6
  9
$SURFTAB2
 70
     6
  9
$SURFTYPE
 70
     6
  9
$SURFU
 70
     6
  9
$SURFV
 70
     6
  9
$UCSBASE
  2

  9
$UCSNAME
  2

  9
$UCSORG
 10
0.0
 20
0.0
 30
0.0
  9
$UCSXDIR
 10
1.0
 20
0.0
 30
0.0
  9
$UCSYDIR
 10
0.0
 20
1.0
 30
0.0
  9
$UCSORTHOREF
  2

  9
$UCSORTHOVIEW
 70
     0
  9
$UCSORGTOP
 10
0.0
 20
0.0
 30
0.0
  9
$UCSORGBOTTOM
 10
0.0
 20
0.0
 30
0.0
  9
$UCSORGLEFT
 10
0.0
 20
0.0
 30
0.0
  9
$UCSORGRIGHT
 10
0.0
 20
0.0
 30
0.0
  9
$UCSORGFRONT
 10
0.0
 20
0.0
 30
0.0
  9
$UCSORGBACK
 10
0.0
 20
0.0
 30
0.0
  9
$PUCSBASE
  2

  9
$PUCSNAME
  2

  9
$PUCSORG
 10
0.0
 20
0.0
 30
0.0
  9
$PUCSXDIR
 10
1.0
 20
0.0
 30
0.0
  9
$PUCSYDIR
 10
0.0
 20
1.0
 30
0.0
  9
$PUCSORTHOREF
  2

  9
$PUCSORTHOVIEW
 70
     0
  9
$PUCSORGTOP
 10
0.0
 20
0.0
 30
0.0
  9
$PUCSORGBOTTOM
 10
0.0
 20
0.0
 30
0.0
  9
$PUCSORGLEFT
 10
0.0
 20
0.0
 30
0.0
  9
$PUCSORGRIGHT
 10
0.0
 20
0.0
 30
0.0
  9
$PUCSORGFRONT
 10
0.0
 20
0.0
 30
0.0
  9
$PUCSORGBACK
 10
0.0
 20
0.0
 30
0.0
  9
$USERI1
 70
     0
  9
$USERI2
 70
     0
  9
$USERI3
 70
     0
  9
$USERI4
 70
     0
  9
$USERI5
 70
     0
  9
$USERR1
 40
0.0
  9
$USERR2
 40
0.0
  9
$USERR3
 40
0.0
  9
$USERR4
 40
0.0
  9
$USERR5
 40
0.0
  9
$WORLDVIEW
 70
     1
  9
$SHADEDGE
 70
     3
  9
$SHADEDIF
 70
    70
  9
$TILEMODE
 70
     1
  9
$MAXACTVP
 70
    64
  9
$PINSBASE
 10
0.0
 20
0.0
 30
0.0
  9
$PLIMCHECK
 70
     0
  9
$PEXTMIN
 10
1.000000000000000E+20
 20
1.000000000000000E+20
 30
1.000000000000000E+20
  9
$PEXTMAX
 10
-1.000000000000000E+20
 20
-1.000000000000000E+20
 30
-1.000000000000000E+20
  9
$PLIMMIN
 10
0.0071835950613108
 20
0.0009369707933118
  9
$PLIMMAX
 10
841.0071835950612
 20
594.0009369707931
  9
$UNITMODE
 70
     0
  9
$VISRETAIN
 70
     1
  9
$PLINEGEN
 70
     0
  9
$PSLTSCALE
 70
     1
  9
$TREEDEPTH
 70
  3020
  9
$CMLSTYLE
  2
Standard
  9
$CMLJUST
 70
     0
  9
$CMLSCALE
 40
1.0
  9
$PROXYGRAPHICS
 70
     1
  9
$MEASUREMENT
 70
     0
  9
$CELWEIGHT
370
    -1
  9
$ENDCAPS
280
     0
  9
$JOINSTYLE
280
     0
  9
$LWDISPLAY
290
     0
  9
$INSUNITS
 70
     0
  9
$HYPERLINKBASE
  1

  9
$STYLESHEET
  1

  9
$XEDIT
290
     1
  9
$CEPSNTYPE
380
     0
  9
$PSTYLEMODE
290
     1
  9
$FINGERPRINTGUID
  2
{14B93FE2-FCC2-4D4E-9154-35D513CEB047}
  9
$VERSIONGUID
  2
{A5C06639-2327-460A-8AE2-C8C74D40A76B}
  9
$EXTNAMES
290
     1
  9
$PSVPSCALE
 40
0.0
  9
$OLESTARTUP
290
     0
  9
$SORTENTS
280
   127
  9
$INDEXCTL
280
     0
  9
$HIDETEXT
280
     0
  9
$XCLIPFRAME
290
     0
  9
$HALOGAP
280
     0
  9
$OBSCOLOR
 70
   257
  9
$OBSLTYPE
280
     0
  9
$INTERSECTIONDISPLAY
280
     0
  9
$INTERSECTIONCOLOR
 70
   257
  9
$DIMASSOC
280
     1
  9
$PROJECTNAME
  1

  0
ENDSEC
  0
SECTION
  2
CLASSES
  0
CLASS
  1
ACDBDICTIONARYWDFLT
  2
AcDbDictionaryWithDefault
  3
ObjectDBX Classes
 90
        0
 91
        1
280
     0
281
     0
  0
CLASS
  1
TABLESTYLE
  2
AcDbTableStyle
  3
ObjectDBX Classes
 90
     4095
 91
        1
280
     0
281
     0
  0
CLASS
  1
SORTENTSTABLE
  2
AcDbSortentsTable
  3
ObjectDBX Classes
 90
        0
 91
        1
280
     0
281
     0
  0
CLASS
  1
DICTIONARYVAR
  2
AcDbDictionaryVar
  3
ObjectDBX Classes
 90
        0
 91
        3
280
     0
281
     0
  0
CLASS
  1
MATERIAL
  2
AcDbMaterial
  3
ObjectDBX Classes
 90
     1024
 91
        3
280
     0
281
     0
  0
CLASS
  1
VISUALSTYLE
  2
AcDbVisualStyle
  3
ObjectDBX Classes
 90
     4095
 91
       16
280
     0
281
     0
  0
ENDSEC
  0
SECTION
  2
TABLES
  0
TABLE
  2
VPORT
  5
1F5A
330
0
100
AcDbSymbolTable
 70
     1
  0
VPORT
  5
1FE8
330
1F5A
100
AcDbSymbolTableRecord
100
AcDbViewportTableRecord
  2
*Active
 70
     0
 10
0.0
 20
0.0
 11
1.0
 21
1.0
 12
1890.248972821973
 22
980.360009702777
 13
0.0
 23
0.0
 14
10.0
 24
10.0
 15
10.0
 25
10.0
 16
0.0
 26
0.0
 36
1.0
 17
0.0
 27
0.0
 37
0.0
 40
12.43262382872206
 41
3.557324840764331
 42
50.0
 43
0.0
 44
0.0
 50
0.0
 51
0.0
 71
     0
 72
  1000
 73
     1
 74
     3
 75
     0
 76
     0
 77
     0
 78
     0
281
     0
 65
     0
110
0.0
120
0.0
130
0.0
111
1.0
121
0.0
131
0.0
112
0.0
122
1.0
132
0.0
 79
     0
146
0.0
  0
ENDTAB
  0
TABLE
  2
LTYPE
  5
1F57
330
0
100
AcDbSymbolTable
 70
     2
  0
LTYPE
  5
1F65
330
1F57
100
AcDbSymbolTableRecord
100
AcDbLinetypeTableRecord
  2
ByBlock
 70
     0
  3

 72
    65
 73
     0
 40
0.0
  0
LTYPE
  5
1F66
330
1F57
100
AcDbSymbolTableRecord
100
AcDbLinetypeTableRecord
  2
ByLayer
 70
     0
  3

 72
    65
 73
     0
 40
0.0
  0
LTYPE
  5
1F67
330
1F57
100
AcDbSymbolTableRecord
100
AcDbLinetypeTableRecord
  2
CONTINUOUS
 70
     0
  3
Solid line
 72
    65
 73
     0
 40
0.0
  0
LTYPE
  5
1F7A
330
1F57
100
AcDbSymbolTableRecord
100
AcDbLinetypeTableRecord
  2
ACAD_ISO04W100
 70
     0
  3
ISO long-dash dot ____ . ____ . ____ . ____ . _
 72
    65
 73
     4
 40
30.0
 49
24.0
 74
     0
 49
-3.0
 74
     0
 49
0.0
 74
     0
 49
-3.0
 74
     0
  0
ENDTAB
  0
TABLE
  2
LAYER
  5
1F54
102
{ACAD_XDICTIONARY
360
1FC9
102
}
330
0
100
AcDbSymbolTable
 70
     9
  0
LAYER
  5
1F62
330
1F54
100
AcDbSymbolTableRecord
100
AcDbLayerTableRecord
  2
0
 70
     0
 62
     7
  6
CONTINUOUS
370
    -3
390
1F61
  0
LAYER
  5
1F7B
330
1F54
100
AcDbSymbolTableRecord
100
AcDbLayerTableRecord
  2
07
 70
     0
 62
     7
  6
CONTINUOUS
370
    -3
390
1F61
  0
LAYER
  5
1F7C
330
1F54
100
AcDbSymbolTableRecord
100
AcDbLayerTableRecord
  2
035
 70
     0
 62
     5
  6
CONTINUOUS
370
    -3
390
1F61
  0
LAYER
  5
1F7D
330
1F54
100
AcDbSymbolTableRecord
100
AcDbLayerTableRecord
  2
05
 70
     0
 62
     6
  6
CONTINUOUS
370
    -3
390
1F61
  0
LAYER
  5
1F7E
330
1F54
100
AcDbSymbolTableRecord
100
AcDbLayerTableRecord
  2
025
 70
     0
 62
     1
  6
CONTINUOUS
370
    -3
390
1F61
  0
LAYER
  5
1F7F
330
1F54
100
AcDbSymbolTableRecord
100
AcDbLayerTableRecord
  2
DEFPOINTS
 70
     0
 62
     7
  6
CONTINUOUS
290
     0
370
    -3
390
1F61
  0
LAYER
  5
1F80
330
1F54
100
AcDbSymbolTableRecord
100
AcDbLayerTableRecord
  2
\U+7C97\U+5B9E\U+7EBF
 70
     0
 62
     7
  6
CONTINUOUS
370
    -3
390
1F61
  0
LAYER
  5
1F81
330
1F54
100
AcDbSymbolTableRecord
100
AcDbLayerTableRecord
  2
\U+6807\U+6CE8\U+7EBF
 70
     0
 62
     7
  6
CONTINUOUS
370
    -3
390
1F61
  0
LAYER
  5
1F82
330
1F54
100
AcDbSymbolTableRecord
100
AcDbLayerTableRecord
  2
\U+4E2D\U+5FC3\U+7EBF
 70
     0
 62
     7
  6
ACAD_ISO04W100
370
    -3
390
1F61
  0
ENDTAB
  0
TABLE
  2
STYLE
  5
1F55
330
0
100
AcDbSymbolTable
 70
     4
  0
STYLE
  5
1F63
330
1F55
100
AcDbSymbolTableRecord
100
AcDbTextStyleTableRecord
  2
STANDARD
 70
     0
 40
0.0
 41
1.0
 50
0.0
 71
     0
 42
2.5
  3
txt
  4

  0
STYLE
  5
1F78
330
1F55
100
AcDbSymbolTableRecord
100
AcDbTextStyleTableRecord
  2
\U+C2A4\U+D0C0\U+C77C2
 70
     0
 40
0.3937
 41
1.0
 50
0.0
 71
     0
 42
0.3937
  3
txt.shx
  4

  0
STYLE
  5
1F83
330
1F55
100
AcDbSymbolTableRecord
100
AcDbTextStyleTableRecord
  2
ISO_PROPORTIONAL
 70
     0
 40
0.0
 41
1.0
 50
0.0
 71
     0
 42
2.5
  3
isocp.shx
  4

  0
STYLE
  5
1F84
330
1F55
100
AcDbSymbolTableRecord
100
AcDbTextStyleTableRecord
  2
\U+C2A4\U+D0C0\U+C77C1
 70
     0
 40
0.1968
 41
1.0
 50
0.0
 71
     0
 42
2.5
  3
txt.shx
  4

  0
ENDTAB
  0
TABLE
  2
VIEW
  5
1F58
330
0
100
AcDbSymbolTable
 70
     0
  0
ENDTAB
  0
TABLE
  2
UCS
  5
1F59
330
0
100
AcDbSymbolTable
 70
     0
  0
ENDTAB
  0
TABLE
  2
APPID
  5
1F5B
330
0
100
AcDbSymbolTable
 70
    12
  0
APPID
  5
1F64
330
1F5B
100
AcDbSymbolTableRecord
100
AcDbRegAppTableRecord
  2
ACAD
 70
     0
  0
APPID
  5
1F85
330
1F5B
100
AcDbSymbolTableRecord
100
AcDbRegAppTableRecord
  2
GENIUS_GENTRA_14
 70
     0
  0
APPID
  5
1F86
330
1F5B
100
AcDbSymbolTableRecord
100
AcDbRegAppTableRecord
  2
GENIUS_GENODEF_13
 70
     0
  0
APPID
  5
1F87
330
1F5B
100
AcDbSymbolTableRecord
100
AcDbRegAppTableRecord
  2
GENIUS_GENOBJ-N-TIT_13
 70
     0
  0
APPID
  5
1F88
330
1F5B
100
AcDbSymbolTableRecord
100
AcDbRegAppTableRecord
  2
GENIUS_GENTITLE_13
 70
     0
  0
APPID
  5
1F89
330
1F5B
100
AcDbSymbolTableRecord
100
AcDbRegAppTableRecord
  2
GENIUS_GENOENT_13
 70
     0
  0
APPID
  5
1F8A
330
1F5B
100
AcDbSymbolTableRecord
100
AcDbRegAppTableRecord
  2
GENIUS_GENOREF_13
 70
     0
  0
APPID
  5
1F8B
330
1F5B
100
AcDbSymbolTableRecord
100
AcDbRegAppTableRecord
  2
GENIUS_GENOLIS_13
 70
     0
  0
APPID
  5
1F8C
330
1F5B
100
AcDbSymbolTableRecord
100
AcDbRegAppTableRecord
  2
GENIUS_GENOBJ-N-SDF_13
 70
     0
  0
APPID
  5
1F8D
330
1F5B
100
AcDbSymbolTableRecord
100
AcDbRegAppTableRecord
  2
GENIUS_GENSCREG_13
 70
     0
  0
APPID
  5
1F8E
330
1F5B
100
AcDbSymbolTableRecord
100
AcDbRegAppTableRecord
  2
ACAD_DSTYLE_DIMTEXT_FILL
 70
     0
  0
APPID
  5
1F8F
330
1F5B
100
AcDbSymbolTableRecord
100
AcDbRegAppTableRecord
  2
ACAD_PSEXT
 70
     0
  0
ENDTAB
  0
TABLE
  2
DIMSTYLE
  5
1F5C
330
0
100
AcDbSymbolTable
 70
     4
100
AcDbDimStyleTable
 71
     0
  0
DIMSTYLE
105
1F90
330
1F5C
100
AcDbSymbolTableRecord
100
AcDbDimStyleTableRecord
  2
DIN
 70
     0
 41
2.5
 42
0.625
 43
3.75
 44
1.25
 74
     0
 77
     1
 78
     8
140
2.5
141
2.5
143
0.0394
145
1.0
147
0.625
172
     1
273
     3
277
     3
279
     2
284
     8
285
     8
286
     8
340
1F78
  0
DIMSTYLE
105
1F91
330
1F5C
100
AcDbSymbolTableRecord
100
AcDbDimStyleTableRecord
  2
ISO-25
 70
     0
 41
10.0
 42
0.625
 43
3.75
 44
10.0
 73
     0
 74
     0
 77
     1
 78
     8
140
20.0
141
2.5
143
0.03937007874016
147
10.0
171
     3
172
     1
273
     3
277
     3
279
     2
284
     8
285
     8
286
     8
340
1F78
  0
DIMSTYLE
105
1F92
330
1F5C
100
AcDbSymbolTableRecord
100
AcDbDimStyleTableRecord
  2
\U+526F\U+672CISO-25
 70
     0
 41
15.0
 42
0.625
 43
3.75
 44
2.0
 73
     0
 74
     0
 77
     1
 78
     8
140
22.0
141
2.5
143
0.03937007874016
147
10.0
171
     3
273
     3
277
     3
279
     2
284
     8
285
     8
286
     8
340
1F78
  0
DIMSTYLE
105
1F93
330
1F5C
100
AcDbSymbolTableRecord
100
AcDbDimStyleTableRecord
  2
\U+526F\U+672C__2_ISO-25
 70
     0
 41
10.0
 42
0.625
 43
3.75
 44
10.0
 73
     0
 74
     0
 77
     1
 78
     8
140
10.0
141
2.5
143
0.03937007874016
147
10.0
171
     3
172
     1
273
     3
277
     3
279
     2
284
     8
285
     8
286
     8
340
1F78
  0
ENDTAB
  0
TABLE
  2
BLOCK_RECORD
  5
1F53
330
0
100
AcDbSymbolTable
 70
    25
  0
BLOCK_RECORD
  5
1F74
330
1F53
100
AcDbSymbolTableRecord
100
AcDbBlockTableRecord
  2
*Model_Space
340
1F77
  0
BLOCK_RECORD
  5
1F70
330
1F53
100
AcDbSymbolTableRecord
100
AcDbBlockTableRecord
  2
*Paper_Space
340
1F73
  0
BLOCK_RECORD
  5
1F96
330
1F53
100
AcDbSymbolTableRecord
100
AcDbBlockTableRecord
  2
$MODEL_SPACE
340
0
  0
BLOCK_RECORD
  5
1F98
330
1F53
100
AcDbSymbolTableRecord
100
AcDbBlockTableRecord
  2
$PAPER_SPACE
340
0
  0
BLOCK_RECORD
  5
1F9A
330
1F53
100
AcDbSymbolTableRecord
100
AcDbBlockTableRecord
  2
*D2
340
0
  0
BLOCK_RECORD
  5
1F9C
330
1F53
100
AcDbSymbolTableRecord
100
AcDbBlockTableRecord
  2
*U3
340
0
102
{BLKREFS
331
1E46
102
}
  0
BLOCK_RECORD
  5
1F9D
330
1F53
100
AcDbSymbolTableRecord
100
AcDbBlockTableRecord
  2
*D4
340
0
  0
BLOCK_RECORD
  5
1F9F
330
1F53
100
AcDbSymbolTableRecord
100
AcDbBlockTableRecord
  2
*U5
340
0
102
{BLKREFS
331
1E4F
102
}
  0
BLOCK_RECORD
  5
1FA0
330
1F53
100
AcDbSymbolTableRecord
100
AcDbBlockTableRecord
  2
*D6
340
0
  0
BLOCK_RECORD
  5
1FA2
330
1F53
100
AcDbSymbolTableRecord
100
AcDbBlockTableRecord
  2
*U7
340
0
102
{BLKREFS
331
1E58
102
}
  0
BLOCK_RECORD
  5
1FA3
330
1F53
100
AcDbSymbolTableRecord
100
AcDbBlockTableRecord
  2
*D8
340
0
  0
BLOCK_RECORD
  5
1FA5
330
1F53
100
AcDbSymbolTableRecord
100
AcDbBlockTableRecord
  2
*U9
340
0
102
{BLKREFS
331
1E61
102
}
  0
BLOCK_RECORD
  5
1FA6
330
1F53
100
AcDbSymbolTableRecord
100
AcDbBlockTableRecord
  2
*D10
340
0
  0
BLOCK_RECORD
  5
1FA8
330
1F53
100
AcDbSymbolTableRecord
100
AcDbBlockTableRecord
  2
*U11
340
0
102
{BLKREFS
331
1E73
102
}
  0
BLOCK_RECORD
  5
1FA9
330
1F53
100
AcDbSymbolTableRecord
100
AcDbBlockTableRecord
  2
*D12
340
0
  0
BLOCK_RECORD
  5
1FAB
330
1F53
100
AcDbSymbolTableRecord
100
AcDbBlockTableRecord
  2
*U13
340
0
102
{BLKREFS
331
1E7C
102
}
  0
BLOCK_RECORD
  5
1FAC
330
1F53
100
AcDbSymbolTableRecord
100
AcDbBlockTableRecord
  2
*D14
340
0
  0
BLOCK_RECORD
  5
1FAE
330
1F53
100
AcDbSymbolTableRecord
100
AcDbBlockTableRecord
  2
*U15
340
0
102
{BLKREFS
331
1E8A
102
}
  0
BLOCK_RECORD
  5
1FAF
330
1F53
100
AcDbSymbolTableRecord
100
AcDbBlockTableRecord
  2
*D16
340
0
  0
BLOCK_RECORD
  5
1FB1
330
1F53
100
AcDbSymbolTableRecord
100
AcDbBlockTableRecord
  2
*U17
340
0
102
{BLKREFS
331
1E97
102
}
  0
BLOCK_RECORD
  5
1FB2
330
1F53
100
AcDbSymbolTableRecord
100
AcDbBlockTableRecord
  2
*D18
340
0
  0
BLOCK_RECORD
  5
1FB4
330
1F53
100
AcDbSymbolTableRecord
100
AcDbBlockTableRecord
  2
*U19
340
0
102
{BLKREFS
331
1EA4
102
}
  0
BLOCK_RECORD
  5
1FB5
330
1F53
100
AcDbSymbolTableRecord
100
AcDbBlockTableRecord
  2
*D20
340
0
  0
BLOCK_RECORD
  5
1FB7
330
1F53
100
AcDbSymbolTableRecord
100
AcDbBlockTableRecord
  2
*U21
340
0
102
{BLKREFS
331
1EB1
102
}
  0
BLOCK_RECORD
  5
1FC2
330
1F53
100
AcDbSymbolTableRecord
100
AcDbBlockTableRecord
  2
*U22
340
0
  0
BLOCK_RECORD
  5
1FC4
330
1F53
100
AcDbSymbolTableRecord
100
AcDbBlockTableRecord
  2
*U23
340
0
  0
ENDTAB
  0
ENDSEC
  0
SECTION
  2
BLOCKS
  0
BLOCK
  5
1F75
330
1F74
100
AcDbEntity
  8
0
100
AcDbBlockBegin
  2
*Model_Space
 70
     0
 10
0.0
 20
0.0
 30
0.0
  3
*Model_Space
  1

  0
ENDBLK
  5
1F76
330
1F74
100
AcDbEntity
  8
0
100
AcDbBlockEnd
  0
BLOCK
  5
1F71
330
1F70
100
AcDbEntity
 67
     1
  8
0
100
AcDbBlockBegin
  2
*Paper_Space
 70
     0
 10
0.0
 20
0.0
 30
0.0
  3
*Paper_Space
  1

  0
ENDBLK
  5
1F72
330
1F70
100
AcDbEntity
 67
     1
  8
0
100
AcDbBlockEnd
  0
BLOCK
  5
1F97
330
1F96
100
AcDbEntity
  8
0
100
AcDbBlockBegin
  2
$MODEL_SPACE
 70
     2
 10
0.0
 20
0.0
 30
0.0
  3
$MODEL_SPACE
  1

  0
ENDBLK
  5
9
330
1F96
100
AcDbEntity
  8
0
100
AcDbBlockEnd
  0
BLOCK
  5
1F99
330
1F98
100
AcDbEntity
  8
0
100
AcDbBlockBegin
  2
$PAPER_SPACE
 70
     0
 10
0.0
 20
0.0
 30
0.0
  3
$PAPER_SPACE
  1

  0
ENDBLK
  5
E
330
1F98
100
AcDbEntity
  8
0
100
AcDbBlockEnd
  0
BLOCK
  5
1F9B
330
1F9A
100
AcDbEntity
  8
0
100
AcDbBlockBegin
  2
*D2
 70
     1
 10
0.0
 20
0.0
 30
0.0
  3
*D2
  1

  0
LINE
  5
1E45
330
1F9A
100
AcDbEntity
  8
0
 62
     0
100
AcDbLine
 10
1867.440517675465
 20
988.1922351748579
 30
0.0
 11
1865.628439948278
 21
989.959200533435
 31
0.0
  0
INSERT
  5
1E46
330
1F9A
100
AcDbEntity
  8
0
100
AcDbBlockReference
  2
*U3
 10
0.0
 20
0.0
 30
0.0
  0
SOLID
  5
1E47
330
1F9A
100
AcDbEntity
  8
0
 62
     0
100
AcDbTrace
 10
1865.651711232749
 20
989.9830659567539
 30
0.0
 11
1865.605168663807
 21
989.935335110116
 31
0.0
 12
1865.485247408364
 22
990.0988282402591
 32
0.0
 13
1865.485247408364
 23
990.0988282402591
 33
0.0
  0
POINT
  5
1E48
330
1F9A
100
AcDbEntity
  8
DEFPOINTS
 62
     0
100
AcDbPoint
 10
1865.485247408364
 20
990.0988282402591
 30
0.0
  0
POINT
  5
1E49
330
1F9A
100
AcDbEntity
  8
DEFPOINTS
 62
     0
100
AcDbPoint
 10
1867.627493721
 20
988.009913969544
 30
0.0
  0
ENDBLK
  5
1E4B
330
1F9A
100
AcDbEntity
  8
0
100
AcDbBlockEnd
  0
BLOCK
  5
1FB8
330
1F9C
100
AcDbEntity
  8
0
100
AcDbBlockBegin
  2
*U3
 70
     1
 10
0.0
 20
0.0
 30
0.0
  3
*U3
  1

  0
TEXT
  5
1F12
330
1F9C
100
AcDbEntity
  8
0
 62
     0
100
AcDbText
 10
1865.842337549876
 20
989.8204640348827
 30
0.0
 40
0.3937
  1
R2.9921
 50
315.7221515337405
  7
\U+C2A4\U+D0C0\U+C77C2
100
AcDbText
  0
ENDBLK
  5
1F14
330
1F9C
100
AcDbEntity
  8
0
100
AcDbBlockEnd
  0
BLOCK
  5
1F9E
330
1F9D
100
AcDbEntity
  8
0
100
AcDbBlockBegin
  2
*D4
 70
     1
 10
0.0
 20
0.0
 30
0.0
  3
*D4
  1

  0
LINE
  5
1E4E
330
1F9D
100
AcDbEntity
  8
0
 62
     0
100
AcDbLine
 10
1868.311881141583
 20
988.2330286733306
 30
0.0
 11
1868.092003889906
 21
990.8861330501302
 31
0.0
  0
INSERT
  5
1E4F
330
1F9D
100
AcDbEntity
  8
0
100
AcDbBlockReference
  2
*U5
 10
0.0
 20
0.0
 30
0.0
  0
SOLID
  5
1E50
330
1F9D
100
AcDbEntity
  8
0
 62
     0
100
AcDbTrace
 10
1868.125223337189
 20
990.8888861271806
 30
0.0
 11
1868.058784442622
 21
990.8833799730803
 31
0.0
 12
1868.075485427606
 22
991.0854497338361
 32
0.0
 13
1868.075485427606
 23
991.0854497338361
 33
0.0
  0
POINT
  5
1E51
330
1F9D
100
AcDbEntity
  8
DEFPOINTS
 62
     0
100
AcDbPoint
 10
1868.075485427606
 20
991.0854497338361
 30
0.0
  0
POINT
  5
1E52
330
1F9D
100
AcDbEntity
  8
DEFPOINTS
 62
     0
100
AcDbPoint
 10
1868.888400253551
 20
981.2765774369935
 30
0.0
  0
ENDBLK
  5
1E54
330
1F9D
100
AcDbEntity
  8
0
100
AcDbBlockEnd
  0
BLOCK
  5
1FB9
330
1F9F
100
AcDbEntity
  8
0
100
AcDbBlockBegin
  2
*U5
 70
     1
 10
0.0
 20
0.0
 30
0.0
  3
*U5
  1

  0
TEXT
  5
1F16
330
1F9F
100
AcDbEntity
  8
0
 62
     0
100
AcDbText
 10
1868.162481138707
 20
990.6411168110745
 30
0.0
 40
0.3937
  1
R9.8425
 50
274.7375875504379
  7
\U+C2A4\U+D0C0\U+C77C2
100
AcDbText
  0
ENDBLK
  5
1F18
330
1F9F
100
AcDbEntity
  8
0
100
AcDbBlockEnd
  0
BLOCK
  5
1FA1
330
1FA0
100
AcDbEntity
  8
0
100
AcDbBlockBegin
  2
*D6
 70
     1
 10
0.0
 20
0.0
 30
0.0
  3
*D6
  1

  0
LINE
  5
1E57
330
1FA0
100
AcDbEntity
  8
0
 62
     0
100
AcDbLine
 10
1867.427823660596
 20
987.56018415759
 30
0.0
 11
1864.783660780525
 21
987.8695569160059
 31
0.0
  0
INSERT
  5
1E58
330
1FA0
100
AcDbEntity
  8
0
100
AcDbBlockReference
  2
*U7
 10
0.0
 20
0.0
 30
0.0
  0
SOLID
  5
1E59
330
1FA0
100
AcDbEntity
  8
0
 62
     0
100
AcDbTrace
 10
1864.787534428365
 20
987.9026644070544
 30
0.0
 11
1864.779787132684
 21
987.8364494249575
 31
0.0
 12
1864.585015834235
 22
987.8927988030479
 32
0.0
 13
1864.585015834235
 23
987.8927988030479
 33
0.0
  0
POINT
  5
1E5A
330
1FA0
100
AcDbEntity
  8
DEFPOINTS
 62
     0
100
AcDbPoint
 10
1864.585015834235
 20
987.8927988030479
 30
0.0
  0
POINT
  5
1E5B
330
1FA0
100
AcDbEntity
  8
DEFPOINTS
 62
     0
100
AcDbPoint
 10
1874.360830253552
 20
986.7490074369936
 30
0.0
  0
ENDBLK
  5
1E5D
330
1FA0
100
AcDbEntity
  8
0
100
AcDbBlockEnd
  0
BLOCK
  5
1FBA
330
1FA2
100
AcDbEntity
  8
0
100
AcDbBlockBegin
  2
*U7
 70
     1
 10
0.0
 20
0.0
 30
0.0
  3
*U7
  1

  0
TEXT
  5
1F1A
330
1FA2
100
AcDbEntity
  8
0
 62
     0
100
AcDbText
 10
1865.037777435149
 20
987.890165793776
 30
0.0
 40
0.3937
  1
R9.8425
 50
353.326611671692
  7
\U+C2A4\U+D0C0\U+C77C2
100
AcDbText
  0
ENDBLK
  5
1F1C
330
1FA2
100
AcDbEntity
  8
0
100
AcDbBlockEnd
  0
BLOCK
  5
1FA4
330
1FA3
100
AcDbEntity
  8
0
100
AcDbBlockBegin
  2
*D8
 70
     1
 10
0.0
 20
0.0
 30
0.0
  3
*D8
  1

  0
LINE
  5
1E60
330
1FA3
100
AcDbEntity
  8
0
 62
     0
100
AcDbLine
 10
1890.122777198659
 20
988.2110410013343
 30
0.0
 11
1890.40817782565
 21
991.1076938584555
 31
0.0
  0
INSERT
  5
1E61
330
1FA3
100
AcDbEntity
  8
0
100
AcDbBlockReference
  2
*U9
 10
0.0
 20
0.0
 30
0.0
  0
SOLID
  5
1E62
330
1FA3
100
AcDbEntity
  8
0
 62
     0
100
AcDbTrace
 10
1890.375005118992
 20
991.1109622898992
 30
0.0
 11
1890.441350532308
 21
991.1044254270121
 31
0.0
 12
1890.427788414311
 22
991.3067300984033
 32
0.0
 13
1890.427788414311
 23
991.3067300984033
 33
0.0
  0
POINT
  5
1E63
330
1FA3
100
AcDbEntity
  8
DEFPOINTS
 62
     0
100
AcDbPoint
 10
1890.427788414311
 20
991.3067300984033
 30
0.0
  0
POINT
  5
1E64
330
1FA3
100
AcDbEntity
  8
DEFPOINTS
 62
     0
100
AcDbPoint
 10
1889.439540253561
 20
981.2765774369935
 30
0.0
  0
ENDBLK
  5
1E66
330
1FA3
100
AcDbEntity
  8
0
100
AcDbBlockEnd
  0
BLOCK
  5
1FBB
330
1FA5
100
AcDbEntity
  8
0
100
AcDbBlockBegin
  2
*U9
 70
     1
 10
0.0
 20
0.0
 30
0.0
  3
*U9
  1

  0
TEXT
  5
1F1E
330
1FA5
100
AcDbEntity
  8
0
 62
     0
100
AcDbText
 10
1890.077920785837
 20
988.2657027084862
 30
0.0
 40
0.3937
  1
R10.0787
 50
84.37293871128982
  7
\U+C2A4\U+D0C0\U+C77C2
100
AcDbText
  0
ENDBLK
  5
1F20
330
1FA5
100
AcDbEntity
  8
0
100
AcDbBlockEnd
  0
BLOCK
  5
1FA7
330
1FA6
100
AcDbEntity
  8
0
100
AcDbBlockBegin
  2
*D10
 70
     1
 10
0.0
 20
0.0
 30
0.0
  3
*D10
  1

  0
LINE
  5
1E72
330
1FA6
100
AcDbEntity
  8
0
 62
     0
100
AcDbLine
 10
1890.956641157219
 20
987.9099315928581
 30
0.0
 11
1893.712321982738
 21
988.3676356191067
 31
0.0
  0
INSERT
  5
1E73
330
1FA6
100
AcDbEntity
  8
0
100
AcDbBlockReference
  2
*U11
 10
0.0
 20
0.0
 30
0.0
  0
SOLID
  5
1E74
330
1FA6
100
AcDbEntity
  8
0
 62
     0
100
AcDbTrace
 10
1893.706860316374
 20
988.4005184613144
 30
0.0
 11
1893.717783649101
 21
988.3347527768995
 31
0.0
 12
1893.909619035983
 22
988.4004056172873
 32
0.0
 13
1893.909619035983
 23
988.4004056172873
 33
0.0
  0
POINT
  5
1E75
330
1FA6
100
AcDbEntity
  8
DEFPOINTS
 62
     0
100
AcDbPoint
 10
1893.909619035983
 20
988.4004056172873
 30
0.0
  0
POINT
  5
1E76
330
1FA6
100
AcDbEntity
  8
DEFPOINTS
 62
     0
100
AcDbPoint
 10
1883.967110253561
 20
986.7490074369936
 30
0.0
  0
ENDBLK
  5
1E78
330
1FA6
100
AcDbEntity
  8
0
100
AcDbBlockEnd
  0
BLOCK
  5
1FBC
330
1FA8
100
AcDbEntity
  8
0
100
AcDbBlockBegin
  2
*U11
 70
     1
 10
0.0
 20
0.0
 30
0.0
  3
*U11
  1

  0
TEXT
  5
1F22
330
1FA8
100
AcDbEntity
  8
0
 62
     0
100
AcDbText
 10
1890.997772920985
 20
987.9674483557138
 30
0.0
 40
0.3937
  1
R10.0787
 50
9.430434623337989
  7
\U+C2A4\U+D0C0\U+C77C2
100
AcDbText
  0
ENDBLK
  5
1F24
330
1FA8
100
AcDbEntity
  8
0
100
AcDbBlockEnd
  0
BLOCK
  5
1FAA
330
1FA9
100
AcDbEntity
  8
0
100
AcDbBlockBegin
  2
*D12
 70
     1
 10
0.0
 20
0.0
 30
0.0
  3
*D12
  1

  0
LINE
  5
1E7B
330
1FA9
100
AcDbEntity
  8
0
 62
     0
100
AcDbLine
 10
1890.910104608464
 20
988.3100840831886
 30
0.0
 11
1892.434524378687
 21
990.4926177494015
 31
0.0
  0
INSERT
  5
1E7C
330
1FA9
100
AcDbEntity
  8
0
100
AcDbBlockReference
  2
*U13
 10
0.0
 20
0.0
 30
0.0
  0
SOLID
  5
1E7D
330
1FA9
100
AcDbEntity
  8
0
 62
     0
100
AcDbTrace
 10
1892.40719693439
 20
990.5117049676199
 30
0.0
 11
1892.461851822984
 21
990.4735305311833
 31
0.0
 12
1892.549047687997
 22
990.6565824151828
 32
0.0
 13
1892.549047687997
 23
990.6565824151828
 33
0.0
  0
POINT
  5
1E7E
330
1FA9
100
AcDbEntity
  8
DEFPOINTS
 62
     0
100
AcDbPoint
 10
1892.549047687997
 20
990.6565824151828
 30
0.0
  0
POINT
  5
1E7F
330
1FA9
100
AcDbEntity
  8
DEFPOINTS
 62
     0
100
AcDbPoint
 10
1890.700446786112
 20
988.0099139695444
 30
0.0
  0
ENDBLK
  5
1E81
330
1FA9
100
AcDbEntity
  8
0
100
AcDbBlockEnd
  0
BLOCK
  5
1FBD
330
1FAB
100
AcDbEntity
  8
0
100
AcDbBlockBegin
  2
*U13
 70
     1
 10
0.0
 20
0.0
 30
0.0
  3
*U13
  1

  0
TEXT
  5
1F26
330
1FAB
100
AcDbEntity
  8
0
 62
     0
100
AcDbText
 10
1890.897744269346
 20
988.3797060769611
 30
0.0
 40
0.3937
  1
R3.2283
 50
55.06711220811033
  7
\U+C2A4\U+D0C0\U+C77C2
100
AcDbText
  0
ENDBLK
  5
1F28
330
1FAB
100
AcDbEntity
  8
0
100
AcDbBlockEnd
  0
BLOCK
  5
1FAD
330
1FAC
100
AcDbEntity
  8
0
100
AcDbBlockBegin
  2
*D14
 70
     1
 10
0.0
 20
0.0
 30
0.0
  3
*D14
  1

  0
LINE
  5
1E85
330
1FAC
100
AcDbEntity
  8
0
 62
     0
100
AcDbLine
 10
1889.539540253561
 20
975.3710774369935
 30
0.0
 11
1894.942043530965
 21
975.3710774369935
 31
0.0
  0
LINE
  5
1E86
330
1FAC
100
AcDbEntity
  8
0
 62
     0
100
AcDbLine
 10
1889.539540253562
 20
991.1190774369938
 30
0.0
 11
1894.942043530965
 21
991.1190774369938
 31
0.0
  0
LINE
  5
1E87
330
1FAC
100
AcDbEntity
  8
0
 62
     0
100
AcDbLine
 10
1894.742043530965
 20
975.5710774369935
 30
0.0
 11
1894.742043530965
 21
990.9190774369935
 31
0.0
  0
SOLID
  5
1E88
330
1FAC
100
AcDbEntity
  8
0
 62
     0
100
AcDbTrace
 10
1894.708710197632
 20
975.5710774369935
 30
0.0
 11
1894.775376864298
 21
975.5710774369935
 31
0.0
 12
1894.742043530965
 22
975.3710774369935
 32
0.0
 13
1894.742043530965
 23
975.3710774369935
 33
0.0
  0
SOLID
  5
1E89
330
1FAC
100
AcDbEntity
  8
0
 62
     0
100
AcDbTrace
 10
1894.708710197632
 20
990.9190774369935
 30
0.0
 11
1894.775376864298
 21
990.9190774369935
 31
0.0
 12
1894.742043530965
 22
991.1190774369938
 32
0.0
 13
1894.742043530965
 23
991.1190774369938
 33
0.0
  0
INSERT
  5
1E8A
330
1FAC
100
AcDbEntity
  8
0
100
AcDbBlockReference
  2
*U15
 10
0.0
 20
0.0
 30
0.0
  0
POINT
  5
1E8B
330
1FAC
100
AcDbEntity
  8
DEFPOINTS
 62
     0
100
AcDbPoint
 10
1889.439540253561
 20
975.3710774369935
 30
0.0
  0
POINT
  5
1E8C
330
1FAC
100
AcDbEntity
  8
DEFPOINTS
 62
     0
100
AcDbPoint
 10
1889.439540253562
 20
991.1190774369938
 30
0.0
  0
POINT
  5
1E8D
330
1FAC
100
AcDbEntity
  8
DEFPOINTS
 62
     0
100
AcDbPoint
 10
1894.742043530965
 20
991.1190774369938
 30
0.0
  0
ENDBLK
  5
1E8F
330
1FAC
100
AcDbEntity
  8
0
100
AcDbBlockEnd
  0
BLOCK
  5
1FBE
330
1FAE
100
AcDbEntity
  8
0
100
AcDbBlockBegin
  2
*U15
 70
     1
 10
0.0
 20
0.0
 30
0.0
  3
*U15
  1

  0
TEXT
  5
1F2A
330
1FAE
100
AcDbEntity
  8
0
 62
     0
100
AcDbText
 10
1894.692043530964
 20
982.3264441036608
 30
0.0
 40
0.3937
  1
15.748
 50
90.0
  7
\U+C2A4\U+D0C0\U+C77C2
100
AcDbText
  0
ENDBLK
  5
1F2C
330
1FAE
100
AcDbEntity
  8
0
100
AcDbBlockEnd
  0
BLOCK
  5
1FB0
330
1FAF
100
AcDbEntity
  8
0
100
AcDbBlockBegin
  2
*D16
 70
     1
 10
0.0
 20
0.0
 30
0.0
  3
*D16
  1

  0
LINE
  5
1E92
330
1FAF
100
AcDbEntity
  8
0
 62
     0
100
AcDbLine
 10
1889.539540253561
 20
975.1348574369936
 30
0.0
 11
1895.583774880467
 21
975.1348574369936
 31
0.0
  0
LINE
  5
1E93
330
1FAF
100
AcDbEntity
  8
0
 62
     0
100
AcDbLine
 10
1889.539540253562
 20
991.3552974369935
 30
0.0
 11
1895.583774880467
 21
991.3552974369935
 31
0.0
  0
LINE
  5
1E94
330
1FAF
100
AcDbEntity
  8
0
 62
     0
100
AcDbLine
 10
1895.383774880466
 20
975.3348574369935
 30
0.0
 11
1895.383774880466
 21
991.1552974369936
 31
0.0
  0
SOLID
  5
1E95
330
1FAF
100
AcDbEntity
  8
0
 62
     0
100
AcDbTrace
 10
1895.350441547134
 20
975.3348574369935
 30
0.0
 11
1895.4171082138
 21
975.3348574369935
 31
0.0
 12
1895.383774880466
 22
975.1348574369936
 32
0.0
 13
1895.383774880466
 23
975.1348574369936
 33
0.0
  0
SOLID
  5
1E96
330
1FAF
100
AcDbEntity
  8
0
 62
     0
100
AcDbTrace
 10
1895.350441547134
 20
991.1552974369936
 30
0.0
 11
1895.4171082138
 21
991.1552974369936
 31
0.0
 12
1895.383774880466
 22
991.3552974369935
 32
0.0
 13
1895.383774880466
 23
991.3552974369935
 33
0.0
  0
INSERT
  5
1E97
330
1FAF
100
AcDbEntity
  8
0
100
AcDbBlockReference
  2
*U17
 10
0.0
 20
0.0
 30
0.0
  0
POINT
  5
1E98
330
1FAF
100
AcDbEntity
  8
DEFPOINTS
 62
     0
100
AcDbPoint
 10
1889.439540253561
 20
975.1348574369936
 30
0.0
  0
POINT
  5
1E99
330
1FAF
100
AcDbEntity
  8
DEFPOINTS
 62
     0
100
AcDbPoint
 10
1889.439540253562
 20
991.3552974369935
 30
0.0
  0
POINT
  5
1E9A
330
1FAF
100
AcDbEntity
  8
DEFPOINTS
 62
     0
100
AcDbPoint
 10
1895.383774880466
 20
991.3552974369935
 30
0.0
  0
ENDBLK
  5
1E9C
330
1FAF
100
AcDbEntity
  8
0
100
AcDbBlockEnd
  0
BLOCK
  5
1FBF
330
1FB1
100
AcDbEntity
  8
0
100
AcDbBlockBegin
  2
*U17
 70
     1
 10
0.0
 20
0.0
 30
0.0
  3
*U17
  1

  0
TEXT
  5
1F2E
330
1FB1
100
AcDbEntity
  8
0
 62
     0
100
AcDbText
 10
1895.333774880467
 20
982.1624024369937
 30
0.0
 40
0.3937
  1
16.2204
 50
90.0
  7
\U+C2A4\U+D0C0\U+C77C2
100
AcDbText
  0
ENDBLK
  5
1F30
330
1FB1
100
AcDbEntity
  8
0
100
AcDbBlockEnd
  0
BLOCK
  5
1FB3
330
1FB2
100
AcDbEntity
  8
0
100
AcDbBlockBegin
  2
*D18
 70
     1
 10
0.0
 20
0.0
 30
0.0
  3
*D18
  1

  0
LINE
  5
1E9F
330
1FB2
100
AcDbEntity
  8
0
 62
     0
100
AcDbLine
 10
1864.518330253553
 20
979.6411474369985
 30
0.0
 11
1864.518330253553
 21
974.1453230191762
 31
0.0
  0
LINE
  5
1EA0
330
1FB2
100
AcDbEntity
  8
0
 62
     0
100
AcDbLine
 10
1893.809610253561
 20
979.6411474370064
 30
0.0
 11
1893.809610253561
 21
974.1453230191762
 31
0.0
  0
LINE
  5
1EA1
330
1FB2
100
AcDbEntity
  8
0
 62
     0
100
AcDbLine
 10
1864.718330253553
 20
974.3453230191759
 30
0.0
 11
1893.609610253562
 21
974.3453230191759
 31
0.0
  0
SOLID
  5
1EA2
330
1FB2
100
AcDbEntity
  8
0
 62
     0
100
AcDbTrace
 10
1864.718330253553
 20
974.3786563525096
 30
0.0
 11
1864.718330253553
 21
974.3119896858427
 31
0.0
 12
1864.518330253553
 22
974.3453230191759
 32
0.0
 13
1864.518330253553
 23
974.3453230191759
 33
0.0
  0
SOLID
  5
1EA3
330
1FB2
100
AcDbEntity
  8
0
 62
     0
100
AcDbTrace
 10
1893.609610253562
 20
974.3786563525096
 30
0.0
 11
1893.609610253562
 21
974.3119896858427
 31
0.0
 12
1893.809610253561
 22
974.3453230191759
 32
0.0
 13
1893.809610253561
 23
974.3453230191759
 33
0.0
  0
INSERT
  5
1EA4
330
1FB2
100
AcDbEntity
  8
0
100
AcDbBlockReference
  2
*U19
 10
0.0
 20
0.0
 30
0.0
  0
POINT
  5
1EA5
330
1FB2
100
AcDbEntity
  8
DEFPOINTS
 62
     0
100
AcDbPoint
 10
1864.518330253553
 20
979.7411474369983
 30
0.0
  0
POINT
  5
1EA6
330
1FB2
100
AcDbEntity
  8
DEFPOINTS
 62
     0
100
AcDbPoint
 10
1893.809610253561
 20
979.7411474370063
 30
0.0
  0
POINT
  5
1EA7
330
1FB2
100
AcDbEntity
  8
DEFPOINTS
 62
     0
100
AcDbPoint
 10
1893.809610253561
 20
974.3453230191759
 30
0.0
  0
ENDBLK
  5
1EA9
330
1FB2
100
AcDbEntity
  8
0
100
AcDbBlockEnd
  0
BLOCK
  5
1FC0
330
1FB4
100
AcDbEntity
  8
0
100
AcDbBlockBegin
  2
*U19
 70
     1
 10
0.0
 20
0.0
 30
0.0
  3
*U19
  1

  0
TEXT
  5
1F32
330
1FB4
100
AcDbEntity
  8
0
 62
     0
100
AcDbText
 10
1878.048486920224
 20
974.395323019176
 30
0.0
 40
0.3937
  1
29.2913
  7
\U+C2A4\U+D0C0\U+C77C2
100
AcDbText
  0
ENDBLK
  5
1F34
330
1FB4
100
AcDbEntity
  8
0
100
AcDbBlockEnd
  0
BLOCK
  5
1FB6
330
1FB5
100
AcDbEntity
  8
0
100
AcDbBlockBegin
  2
*D20
 70
     1
 10
0.0
 20
0.0
 30
0.0
  3
*D20
  1

  0
LINE
  5
1EAC
330
1FB5
100
AcDbEntity
  8
0
 62
     0
100
AcDbLine
 10
1864.282110253553
 20
979.6411474369959
 30
0.0
 11
1864.282110253553
 21
973.3445576730703
 31
0.0
  0
LINE
  5
1EAD
330
1FB5
100
AcDbEntity
  8
0
 62
     0
100
AcDbLine
 10
1894.045830253561
 20
979.6411474370067
 30
0.0
 11
1894.045830253561
 21
973.3445576730703
 31
0.0
  0
LINE
  5
1EAE
330
1FB5
100
AcDbEntity
  8
0
 62
     0
100
AcDbLine
 10
1864.482110253552
 20
973.5445576730707
 30
0.0
 11
1893.845830253562
 21
973.5445576730707
 31
0.0
  0
SOLID
  5
1EAF
330
1FB5
100
AcDbEntity
  8
0
 62
     0
100
AcDbTrace
 10
1864.482110253552
 20
973.5778910064039
 30
0.0
 11
1864.482110253552
 21
973.5112243397376
 31
0.0
 12
1864.282110253553
 22
973.5445576730707
 32
0.0
 13
1864.282110253553
 23
973.5445576730707
 33
0.0
  0
SOLID
  5
1EB0
330
1FB5
100
AcDbEntity
  8
0
 62
     0
100
AcDbTrace
 10
1893.845830253562
 20
973.5778910064039
 30
0.0
 11
1893.845830253562
 21
973.5112243397376
 31
0.0
 12
1894.045830253561
 22
973.5445576730707
 32
0.0
 13
1894.045830253561
 23
973.5445576730707
 33
0.0
  0
INSERT
  5
1EB1
330
1FB5
100
AcDbEntity
  8
0
100
AcDbBlockReference
  2
*U21
 10
0.0
 20
0.0
 30
0.0
  0
POINT
  5
1EB2
330
1FB5
100
AcDbEntity
  8
DEFPOINTS
 62
     0
100
AcDbPoint
 10
1864.282110253553
 20
979.7411474369964
 30
0.0
  0
POINT
  5
1EB3
330
1FB5
100
AcDbEntity
  8
DEFPOINTS
 62
     0
100
AcDbPoint
 10
1894.045830253561
 20
979.7411474370067
 30
0.0
  0
POINT
  5
1EB4
330
1FB5
100
AcDbEntity
  8
DEFPOINTS
 62
     0
100
AcDbPoint
 10
1894.045830253561
 20
973.5445576730707
 30
0.0
  0
ENDBLK
  5
1EB6
330
1FB5
100
AcDbEntity
  8
0
100
AcDbBlockEnd
  0
BLOCK
  5
1FC1
330
1FB7
100
AcDbEntity
  8
0
100
AcDbBlockBegin
  2
*U21
 70
     1
 10
0.0
 20
0.0
 30
0.0
  3
*U21
  1

  0
TEXT
  5
1F36
330
1FB7
100
AcDbEntity
  8
0
 62
     0
100
AcDbText
 10
1877.982870253557
 20
973.5945576730706
 30
0.0
 40
0.3937
  1
29.7637
  7
\U+C2A4\U+D0C0\U+C77C2
100
AcDbText
  0
ENDBLK
  5
1F38
330
1FB7
100
AcDbEntity
  8
0
100
AcDbBlockEnd
  0
BLOCK
  5
1FC3
330
1FC2
100
AcDbEntity
  8
0
100
AcDbBlockBegin
  2
*U22
 70
     1
 10
0.0
 20
0.0
 30
0.0
  3
*U22
  1

  0
TEXT
  5
1F3A
330
1FC2
100
AcDbEntity
  8
0
100
AcDbText
 10
0.2871348237159775
 20
3.878903330502771
 30
0.0
 40
0.4999990000000001
  1
Model : ED-3108
  7
\U+C2A4\U+D0C0\U+C77C2
100
AcDbText
  0
TEXT
  5
1F3B
330
1FC2
100
AcDbEntity
  8
0
100
AcDbText
 10
0.288728187508335
 20
3.291004243836106
 30
0.0
 40
0.28999942
  1
IMPORTANT ! 
  7
\U+C2A4\U+D0C0\U+C77C2
100
AcDbText
  0
TEXT
  5
1F3C
330
1FC2
100
AcDbEntity
  8
0
100
AcDbText
 10
0.2864282642062443
 20
2.765787079390058
 30
0.0
 40
0.28999942
  1
This template is provided as a guide for Flush-Mount cutout only. 
  7
\U+C2A4\U+D0C0\U+C77C2
100
AcDbText
  0
TEXT
  5
1F3D
330
1FC2
100
AcDbEntity
  8
0
100
AcDbText
 10
0.2922826144297482
 20
2.240569914944014
 30
0.0
 40
0.28999942
  1
Before beginning to cut countertop, compare physical dimension of the template and 
  7
\U+C2A4\U+D0C0\U+C77C2
100
AcDbText
  0
TEXT
  5
1F3E
330
1FC2
100
AcDbEntity
  8
0
100
AcDbText
 10
0.2952097895415002
 20
1.715352750497965
 30
0.0
 40
0.28999942
  1
the cutout line with the actual sink unit for an accurate cut.
  7
\U+C2A4\U+D0C0\U+C77C2
100
AcDbText
  0
TEXT
  5
1F3F
330
1FC2
100
AcDbEntity
  8
0
100
AcDbText
 10
0.2920735304931945
 20
1.190135586051918
 30
0.0
 40
0.28999942
  1
Houzer is not responsible for any countertop, installation or labor charges due to 
  7
\U+C2A4\U+D0C0\U+C77C2
100
AcDbText
  0
TEXT
  5
1F40
330
1FC2
100
AcDbEntity
  8
0
100
AcDbText
 10
0.2828738372848311
 20
0.6649184216058746
 30
0.0
 40
0.28999942
  1
failure to follow these instructions.
  7
\U+C2A4\U+D0C0\U+C77C2
100
AcDbText
  0
TEXT
  5
1F41
330
1FC2
100
AcDbEntity
  8
0
100
AcDbText
 10
0.2920735304931945
 20
0.1397012571598282
 30
0.0
 40
0.28999942
  1
HOUZER Inc.                  
  7
\U+C2A4\U+D0C0\U+C77C2
100
AcDbText
  0
LINE
  5
1F42
330
1FC2
100
AcDbEntity
  8
0
100
AcDbLine
 10
4.716289627969761
 20
0.0817013731598282
 30
0.0
 11
8.747846092598457
 21
0.0817013731598282
 31
0.0
  0
TEXT
  5
1F43
330
1FC2
100
AcDbEntity
  8
0
100
AcDbText
 10
4.716289627969761
 20
0.1397012571598282
 30
0.0
 40
0.28999942
  1
www.HouzerSink.com 
  7
\U+C2A4\U+D0C0\U+C77C2
100
AcDbText
  0
ENDBLK
  5
1F45
330
1FC2
100
AcDbEntity
  8
0
100
AcDbBlockEnd
  0
BLOCK
  5
1FC5
330
1FC4
100
AcDbEntity
  8
0
100
AcDbBlockBegin
  2
*U23
 70
     1
 10
0.0
 20
0.0
 30
0.0
  3
*U23
  1

  0
TEXT
  5
1F47
330
1FC4
100
AcDbEntity
  8
0
100
AcDbText
 10
1878.058900088241
 20
981.4425371899933
 30
0.0
 40
0.4999990000000001
  1
Model : MD-3109
  7
\U+C2A4\U+D0C0\U+C77C2
100
AcDbText
  0
TEXT
  5
1F48
330
1FC4
100
AcDbEntity
  8
0
100
AcDbText
 10
1878.060493452034
 20
980.8546381033265
 30
0.0
 40
0.28999942
  1
IMPORTANT ! 
  7
\U+C2A4\U+D0C0\U+C77C2
100
AcDbText
  0
TEXT
  5
1F49
330
1FC4
100
AcDbEntity
  8
0
100
AcDbText
 10
1878.058193528731
 20
980.3294209388807
 30
0.0
 40
0.28999942
  1
This template is provided as a guide for Flush-Mount cutout only. 
  7
\U+C2A4\U+D0C0\U+C77C2
100
AcDbText
  0
TEXT
  5
1F4A
330
1FC4
100
AcDbEntity
  8
0
100
AcDbText
 10
1878.064047878955
 20
979.8042037744343
 30
0.0
 40
0.28999942
  1
Before beginning to cut countertop, compare physical dimension of the template and 
  7
\U+C2A4\U+D0C0\U+C77C2
100
AcDbText
  0
TEXT
  5
1F4B
330
1FC4
100
AcDbEntity
  8
0
100
AcDbText
 10
1878.066975054067
 20
979.2789866099884
 30
0.0
 40
0.28999942
  1
the cutout line with the actual sink unit for an accurate cut.
  7
\U+C2A4\U+D0C0\U+C77C2
100
AcDbText
  0
TEXT
  5
1F4C
330
1FC4
100
AcDbEntity
  8
0
100
AcDbText
 10
1878.063838795019
 20
978.7537694455425
 30
0.0
 40
0.28999942
  1
Houzer is not responsible for any countertop, installation or labor charges due to 
  7
\U+C2A4\U+D0C0\U+C77C2
100
AcDbText
  0
TEXT
  5
1F4D
330
1FC4
100
AcDbEntity
  8
0
100
AcDbText
 10
1878.054639101809
 20
978.2285522810964
 30
0.0
 40
0.28999942
  1
failure to follow these instructions.
  7
\U+C2A4\U+D0C0\U+C77C2
100
AcDbText
  0
TEXT
  5
1F4E
330
1FC4
100
AcDbEntity
  8
0
100
AcDbText
 10
1878.063838795019
 20
977.7033351166503
 30
0.0
 40
0.28999942
  1
HOUZER Inc.                  
  7
\U+C2A4\U+D0C0\U+C77C2
100
AcDbText
  0
LINE
  5
1F4F
330
1FC4
100
AcDbEntity
  8
0
100
AcDbLine
 10
1882.488054892495
 20
977.6453352326502
 30
0.0
 11
1886.519611357124
 21
977.6453352326502
 31
0.0
  0
TEXT
  5
1F50
330
1FC4
100
AcDbEntity
  8
0
100
AcDbText
 10
1882.488054892495
 20
977.7033351166503
 30
0.0
 40
0.28999942
  1
www.HouzerSink.com 
  7
\U+C2A4\U+D0C0\U+C77C2
100
AcDbText
  0
ENDBLK
  5
1F52
330
1FC4
100
AcDbEntity
  8
0
100
AcDbBlockEnd
  0
ENDSEC
  0
SECTION
  2
ENTITIES
  0
POINT
  5
37C
330
1F74
100
AcDbEntity
  8
0
100
AcDbPoint
 10
170.4737662487822
 20
-90.83440570086338
 30
0.0
1001
GENIUS_GENOBJ-N-TIT_13
1002
{
1000
OWNER
1000
GEN
1002
}
1001
GENIUS_GENOENT_13
1002
{
1000
MYREF
1005
37C
1002
}
1002
{
1000
GRP
1005
0
1002
}
1001
GENIUS_GENOLIS_13
1002
{
1000
ENT
1005
0
1005
0
1002
}
1001
GENIUS_GENTITLE_13
1002
{
1000
SCALE
1000
1:1
1002
}
1002
{
1000
BORDER
1000
GEN_A1
1002
}
1002
{
1000
TITLE
1000
GENTITLE
1002
}
1002
{
1000
UNCHG
1002
{
1000
GEN-TITLE-SCA
1000
GEN-TITLE-SIZ
1002
}
1002
}
1002
{
1000
HRA
1005
0
1002
}
1002
{
1000
HTIT
1005
0
1002
}
1002
{
1000
GENIUSID
1005
37C
1002
}
1001
GENIUS_GENODEF_13
1002
{
1000
HIER
1070
     1
1002
}
1002
{
1000
MANEDIT
1070
     0
1002
}
1002
{
1000
NOSEL
1070
     0
1002
}
1002
{
1000
BEHIND
1070
     0
1002
}
1002
{
1000
REACTOR
1002
}
  0
TEXT
  5
384
330
1F74
100
AcDbEntity
  8
0
100
AcDbText
 10
830.9999999999996
 20
-52.92726755347096
 30
0.0
 40
3.5
  1
!GENTITLE-INSERT
100
AcDbText
  0
TEXT
  5
385
330
1F74
100
AcDbEntity
  8
0
100
AcDbText
 10
10.0
 20
-47.92726755347096
 30
0.0
 40
3.5
  1
!GENTITLE-LL
100
AcDbText
  0
TEXT
  5
386
330
1F74
100
AcDbEntity
  8
0
100
AcDbText
 10
831.0
 20
526.0727324465289
 30
0.0
 40
3.5
  1
!GENTITLE-RU
100
AcDbText
  0
TEXT
  5
387
330
1F74
100
AcDbEntity
  8
0
100
AcDbText
 10
841.0
 20
536.0727324465289
 30
0.0
 40
3.5
  1
!GENTITLE-MAX
100
AcDbText
  0
TEXT
  5
3FA
330
1F74
100
AcDbEntity
  8
0
100
AcDbText
 10
684.8812705983664
 20
141.8068575944205
 30
0.0
 40
3.5
  1
!GENTITLE-INSERT
100
AcDbText
  0
TEXT
  5
3FB
330
1F74
100
AcDbEntity
  8
0
100
AcDbText
 10
-136.1187294016335
 20
146.8068575944205
 30
0.0
 40
3.5
  1
!GENTITLE-LL
100
AcDbText
  0
TEXT
  5
3FC
330
1F74
100
AcDbEntity
  8
0
100
AcDbText
 10
684.8812705983664
 20
720.8068575944203
 30
0.0
 40
3.5
  1
!GENTITLE-RU
100
AcDbText
  0
TEXT
  5
3FD
330
1F74
100
AcDbEntity
  8
0
100
AcDbText
 10
694.8812705983664
 20
730.8068575944203
 30
0.0
 40
3.5
  1
!GENTITLE-MAX
100
AcDbText
  0
LINE
  5
1D1E
330
1F74
100
AcDbEntity
  8
\U+7C97\U+5B9E\U+7EBF
 62
     0
100
AcDbLine
 10
1864.518330253553
 20
983.2450774369936
 30
0.0
 11
1864.518330253553
 21
986.7490074369914
 31
0.0
  0
ARC
  5
1D33
330
1F74
100
AcDbEntity
  8
\U+7C97\U+5B9E\U+7EBF
 62
     0
100
AcDbCircle
 10
1874.360830253553
 20
986.7490074369936
 30
0.0
 40
9.842499999999999
100
AcDbArc
 50
169.3934489582227
 51
180.0
  0
ARC
  5
1D34
330
1F74
100
AcDbEntity
  8
\U+7C97\U+5B9E\U+7EBF
 62
     0
100
AcDbCircle
 10
1868.888400253553
 20
981.2765774369935
 30
0.0
 40
9.842499999999999
100
AcDbArc
 50
90.0
 51
100.6065510418564
  0
ARC
  5
1D35
330
1F74
100
AcDbEntity
  8
\U+7C97\U+5B9E\U+7EBF
 62
     0
100
AcDbCircle
 10
1867.627493721
 20
988.009913969544
 30
0.0
 40
2.992119999999999
100
AcDbArc
 50
100.6065510418564
 51
169.3934489582227
  0
LINE
  5
1D3B
330
1F74
100
AcDbEntity
  8
\U+7C97\U+5B9E\U+7EBF
 62
     0
100
AcDbLine
 10
1864.518330253553
 20
983.2450774369936
 30
0.0
 11
1864.518330253553
 21
979.7411474369983
 31
0.0
  0
ARC
  5
1D3D
330
1F74
100
AcDbEntity
  8
\U+7C97\U+5B9E\U+7EBF
 62
     0
100
AcDbCircle
 10
1874.360830253553
 20
979.7411474369964
 30
0.0
 40
9.842499999999999
100
AcDbArc
 50
180.0
 51
190.6065510417772
  0
ARC
  5
1D3E
330
1F74
100
AcDbEntity
  8
\U+7C97\U+5B9E\U+7EBF
 62
     0
100
AcDbCircle
 10
1868.888400253553
 20
985.213577436996
 30
0.0
 40
9.842499999999999
100
AcDbArc
 50
259.3934489581434
 51
270.0
  0
ARC
  5
1D3F
330
1F74
100
AcDbEntity
  8
\U+7C97\U+5B9E\U+7EBF
 62
     0
100
AcDbCircle
 10
1867.627493721
 20
978.4802409044456
 30
0.0
 40
2.992119999999999
100
AcDbArc
 50
190.6065510417772
 51
259.3934489581434
  0
LINE
  5
1D45
330
1F74
100
AcDbEntity
  8
\U+7C97\U+5B9E\U+7EBF
 62
     0
100
AcDbLine
 10
1893.809610253557
 20
983.2450774369936
 30
0.0
 11
1893.809610253561
 21
986.7490074369914
 31
0.0
  0
ARC
  5
1D47
330
1F74
100
AcDbEntity
  8
\U+7C97\U+5B9E\U+7EBF
 62
     0
100
AcDbCircle
 10
1883.967110253561
 20
986.7490074369936
 30
0.0
 40
9.842499999999999
100
AcDbArc
 50
0.0
 51
10.60655104177726
  0
ARC
  5
1D48
330
1F74
100
AcDbEntity
  8
\U+7C97\U+5B9E\U+7EBF
 62
     0
100
AcDbCircle
 10
1889.439540253562
 20
981.2765774369935
 30
0.0
 40
9.842499999999999
100
AcDbArc
 50
79.39344895814352
 51
90.0
  0
ARC
  5
1D49
330
1F74
100
AcDbEntity
  8
\U+7C97\U+5B9E\U+7EBF
 62
     0
100
AcDbCircle
 10
1890.700446786108
 20
988.009913969544
 30
0.0
 40
2.992119999999999
100
AcDbArc
 50
10.60655104177726
 51
79.39344895814352
  0
LINE
  5
1D4F
330
1F74
100
AcDbEntity
  8
\U+7C97\U+5B9E\U+7EBF
 62
     0
100
AcDbLine
 10
1893.809610253557
 20
983.2450774369936
 30
0.0
 11
1893.809610253561
 21
979.7411474369964
 31
0.0
  0
ARC
  5
1D51
330
1F74
100
AcDbEntity
  8
\U+7C97\U+5B9E\U+7EBF
 62
     0
100
AcDbCircle
 10
1883.967110253561
 20
979.7411474369935
 30
0.0
 40
9.842499999999999
100
AcDbArc
 50
349.3934489582227
 51
0.0
  0
ARC
  5
1D52
330
1F74
100
AcDbEntity
  8
\U+7C97\U+5B9E\U+7EBF
 62
     0
100
AcDbCircle
 10
1889.439540253562
 20
985.2135774369935
 30
0.0
 40
9.842499999999999
100
AcDbArc
 50
270.0
 51
280.6065510418564
  0
ARC
  5
1D53
330
1F74
100
AcDbEntity
  8
\U+7C97\U+5B9E\U+7EBF
 62
     0
100
AcDbCircle
 10
1890.700446786108
 20
978.4802409044456
 30
0.0
 40
2.992119999999999
100
AcDbArc
 50
280.6065510418564
 51
349.3934489582227
  0
LINE
  5
1E2C
330
1F74
100
AcDbEntity
  8
0
 62
     0
100
AcDbLine
 10
1868.888400253553
 20
991.1190774369938
 30
0.0
 11
1889.439540253562
 21
991.1190774369938
 31
0.0
  0
LINE
  5
1E2D
330
1F74
100
AcDbEntity
  8
0
 62
     0
100
AcDbLine
 10
1868.888400253553
 20
975.371077436996
 30
0.0
 11
1889.439540253561
 21
975.3710774369935
 31
0.0
  0
MTEXT
  5
2014
330
1F74
100
AcDbEntity
  8
0
100
AcDbMText
 10
1874.426422495223
 20
981.0451812762718
 30
0.0
 40
0.3937
 41
14.93397349915023
 71
     1
 72
     5
  3
{\fTimes New Roman|b0|i0|c0|p18;\H1.27x;Model : CLA-3218D   \H0.58x;IMPORTANT ! \PThis template is provided as a guide for Undermount cutout only. \PBefore beginning to cut countertop, compare physical dimension of the template and the cutout line wi
  1
th the actual sink unit for an accurate cut.\PHamatUSA is not responsible for any countertop, installation or labor charges due to failure to follow these instructions.\P\Lwww.Hamatusa.com }
  7
\U+C2A4\U+D0C0\U+C77C2
 73
     1
 44
1.0
  0
VIEWPORT
  5
74
330
1F70
100
AcDbEntity
 67
     1
  8
0
100
AcDbViewport
 10
490.6337888969089
 20
297.0009369707932
 30
0.0
 40
1115.370256166983
 41
599.3755656108596
 68
     1
 69
     1
 12
490.6337888969089
 22
297.0009369707932
 13
0.0
 23
0.0
 14
10.0
 24
10.0
 15
10.0
 25
10.0
 16
0.0
 26
0.0
 36
1.0
 17
0.0
 27
0.0
 37
0.0
 42
50.0
 43
0.0
 44
0.0
 45
599.3755656108596
 50
0.0
 51
0.0
 72
  1000
 90
    32800
  1

281
     0
 71
     0
 74
     0
110
0.0
120
0.0
130
0.0
111
0.0
121
0.0
131
0.0
112
0.0
122
0.0
132
0.0
 79
     0
146
0.0
170
     0
  0
ENDSEC
  0
SECTION
  2
OBJECTS
  0
DICTIONARY
  5
1F5E
330
0
100
AcDbDictionary
281
     1
  3
ACAD_COLOR
350
1F6D
  3
ACAD_GROUP
350
1F5F
  3
ACAD_LAYOUT
350
1F6B
  3
ACAD_MATERIAL
350
1F6C
  3
ACAD_MLINESTYLE
350
1F68
  3
ACAD_PLOTSETTINGS
350
1F6A
  3
ACAD_PLOTSTYLENAME
350
1F60
  3
ACAD_TABLESTYLE
350
1F6E
  3
ACAD_VISUALSTYLE
350
1FF1
  3
AcDbVariableDictionary
350
1FD4
  0
DICTIONARY
  5
1FC9
330
1F54
100
AcDbDictionary
280
     1
281
     1
  3
ACAD_LAYERSTATES
360
1FCA
  0
DICTIONARY
  5
1F6D
102
{ACAD_REACTORS
330
1F5E
102
}
330
1F5E
100
AcDbDictionary
281
     1
  0
DICTIONARY
  5
1F5F
102
{ACAD_REACTORS
330
1F5E
102
}
330
1F5E
100
AcDbDictionary
281
     1
  0
DICTIONARY
  5
1F6B
102
{ACAD_REACTORS
330
1F5E
102
}
330
1F5E
100
AcDbDictionary
281
     1
  3
Layout1
350
1F73
  3
Model
350
1F77
  0
DICTIONARY
  5
1F6C
102
{ACAD_REACTORS
330
1F5E
102
}
330
1F5E
100
AcDbDictionary
281
     1
  3
ByBlock
350
1FEF
  3
ByLayer
350
1FEE
  3
Global
350
1FF0
  0
DICTIONARY
  5
1F68
102
{ACAD_REACTORS
330
1F5E
102
}
330
1F5E
100
AcDbDictionary
281
     1
  3
Standard
350
1F69
  0
DICTIONARY
  5
1F6A
102
{ACAD_REACTORS
330
1F5E
102
}
330
1F5E
100
AcDbDictionary
281
     1
  0
ACDBDICTIONARYWDFLT
  5
1F60
102
{ACAD_REACTORS
330
1F5E
102
}
330
1F5E
100
AcDbDictionary
281
     1
  3
Normal
350
1F61
100
AcDbDictionaryWithDefault
340
1F61
  0
DICTIONARY
  5
1F6E
102
{ACAD_REACTORS
330
1F5E
102
}
330
1F5E
100
AcDbDictionary
281
     1
  3
Standard
350
1F6F
  0
DICTIONARY
  5
1FF1
102
{ACAD_REACTORS
330
1F5E
102
}
330
1F5E
100
AcDbDictionary
281
     1
  3
2dWireframe
350
1FF7
  3
3D Hidden
350
1FF9
  3
3dWireframe
350
1FF8
  3
Basic
350
1FF6
  3
Brighten
350
1FFD
  3
ColorChange
350
2001
  3
Conceptual
350
1FFA
  3
Dim
350
1FFC
  3
Facepattern
350
2000
  3
Flat
350
1FF2
  3
FlatWithEdges
350
1FF3
  3
Gouraud
350
1FF4
  3
GouraudWithEdges
350
1FF5
  3
Linepattern
350
1FFF
  3
Realistic
350
1FFB
  3
Thicken
350
1FFE
  0
DICTIONARY
  5
1FD4
102
{ACAD_REACTORS
330
1F5E
102
}
330
1F5E
100
AcDbDictionary
281
     1
  3
CTABLESTYLE
350
1FD5
  3
DIMASSOC
350
1FD6
  3
PROJECTNAME
350
1FD7
  0
DICTIONARY
  5
1FCA
102
{ACAD_REACTORS
330
1FC9
102
}
330
1FC9
100
AcDbDictionary
281
     1
  0
LAYOUT
  5
1F73
102
{ACAD_REACTORS
330
1F6B
102
}
330
1F6B
100
AcDbPlotSettings
  1

  2
HP LaserJet 2420 PCL 6
  4

  6

 40
0.0
 41
0.0
 42
0.0
 43
0.0
 44
0.0
 45
0.0
 46
0.0
 47
0.0
 48
0.0
 49
0.0
140
0.0
141
0.0
142
1.0
143
1.0
 70
   688
 72
     0
 73
     0
 74
     5
  7

 75
    16
147
1.0
 76
     0
 77
     2
 78
   300
148
0.0
149
0.0
100
AcDbLayout
  1
Layout1
 70
     1
 71
     1
 10
0.0071835950613108
 20
0.0009369707933118
 11
841.0071835950612
 21
594.0009369707931
 12
0.0
 22
0.0
 32
0.0
 14
1.000000000000000E+20
 24
1.000000000000000E+20
 34
1.000000000000000E+20
 15
-1.000000000000000E+20
 25
-1.000000000000000E+20
 35
-1.000000000000000E+20
146
0.0
 13
0.0
 23
0.0
 33
0.0
 16
1.0
 26
0.0
 36
0.0
 17
0.0
 27
1.0
 37
0.0
 76
     0
330
1F70
331
74
  0
LAYOUT
  5
1F77
102
{ACAD_REACTORS
330
1F6B
102
}
330
1F6B
100
AcDbPlotSettings
  1

  2
HP LaserJet 2420 PCL 6
  4

  6

 40
0.0
 41
0.0
 42
0.0
 43
0.0
 44
0.0
 45
0.0
 46
0.0
 47
0.0
 48
0.0
 49
0.0
140
0.0
141
0.0
142
1.0
143
1.0
 70
  1712
 72
     0
 73
     0
 74
     0
  7

 75
     0
147
1.0
 76
     0
 77
     2
 78
   300
148
0.0
149
0.0
100
AcDbLayout
  1
Model
 70
     1
 71
     0
 10
0.0
 20
0.0
 11
12.0
 21
9.0
 12
0.0
 22
0.0
 32
0.0
 14
0.0
 24
0.0
 34
0.0
 15
0.0
 25
0.0
 35
0.0
146
0.0
 13
0.0
 23
0.0
 33
0.0
 16
1.0
 26
0.0
 36
0.0
 17
0.0
 27
1.0
 37
0.0
 76
     0
330
1F74
331
1FE8
  0
MATERIAL
  5
1FEF
102
{ACAD_XDICTIONARY
360
2019
102
}
102
{ACAD_REACTORS
330
1F6C
102
}
330
1F6C
100
AcDbMaterial
  1
ByBlock
  0
MATERIAL
  5
1FEE
102
{ACAD_XDICTIONARY
360
2017
102
}
102
{ACAD_REACTORS
330
1F6C
102
}
330
1F6C
100
AcDbMaterial
  1
ByLayer
  0
MATERIAL
  5
1FF0
102
{ACAD_XDICTIONARY
360
201B
102
}
102
{ACAD_REACTORS
330
1F6C
102
}
330
1F6C
100
AcDbMaterial
  1
Global
  0
MLINESTYLE
  5
1F69
102
{ACAD_REACTORS
330
1F68
102
}
330
1F68
100
AcDbMlineStyle
  2
STANDARD
 70
     0
  3

 62
   256
 51
90.0
 52
90.0
 71
     2
 49
0.5
 62
   256
  6
BYLAYER
 49
-0.5
 62
   256
  6
BYLAYER
  0
ACDBPLACEHOLDER
  5
1F61
102
{ACAD_REACTORS
330
1F60
102
}
330
1F60
  0
TABLESTYLE
  5
1F6F
102
{ACAD_XDICTIONARY
360
2015
102
}
102
{ACAD_REACTORS
330
1F6E
102
}
330
1F6E
100
AcDbTableStyle
  3
Standard
 70
     0
 71
     0
 40
0.06
 41
0.06
280
     0
281
     0
  7
STANDARD
140
0.18
170
     2
 62
     0
 63
     7
283
     0
274
    -2
284
     1
 64
     0
275
    -2
285
     1
 65
     0
276
    -2
286
     1
 66
     0
277
    -2
287
     1
 67
     0
278
    -2
288
     1
 68
     0
279
    -2
289
     1
 69
     0
  7
STANDARD
140
0.25
170
     5
 62
     0
 63
     7
283
     0
274
    -2
284
     1
 64
     0
275
    -2
285
     1
 65
     0
276
    -2
286
     1
 66
     0
277
    -2
287
     1
 67
     0
278
    -2
288
     1
 68
     0
279
    -2
289
     1
 69
     0
  7
STANDARD
140
0.18
170
     5
 62
     0
 63
     7
283
     0
274
    -2
284
     1
 64
     0
275
    -2
285
     1
 65
     0
276
    -2
286
     1
 66
     0
277
    -2
287
     1
 67
     0
278
    -2
288
     1
 68
     0
279
    -2
289
     1
 69
     0
  0
VISUALSTYLE
  5
1FF7
102
{ACAD_REACTORS
330
1FF1
102
}
330
1FF1
100
AcDbVisualStyle
  2
2dWireframe
 70
     4
 71
     0
 72
     2
 73
     0
 90
        0
 40
-0.6
 41
-30.0
 62
     5
 63
     7
421
 16777215
 74
     1
 91
        4
 64
     7
 65
   257
 75
     1
175
     1
 42
1.0
 92
        0
 66
   257
 43
1.0
 76
     1
 77
     6
 78
     2
 67
     7
 79
     5
170
     0
171
     0
290
     0
174
     0
 93
        1
 44
0.0
173
     0
291
     0
 45
0.0
1001
ACAD
1000
AcDbSavedByObjectVersion
1070
     0
  0
VISUALSTYLE
  5
1FF9
102
{ACAD_REACTORS
330
1FF1
102
}
330
1FF1
100
AcDbVisualStyle
  2
3D Hidden
 70
     6
 71
     1
 72
     2
 73
     2
 90
        0
 40
-0.6
 41
-30.0
 62
     5
 63
     7
421
 16777215
 74
     2
 91
        2
 64
     7
 65
   257
 75
     2
175
     1
 42
40.0
 92
        0
 66
   257
 43
1.0
 76
     1
 77
     6
 78
     2
 67
     7
 79
     3
170
     0
171
     0
290
     0
174
     0
 93
        1
 44
0.0
173
     0
291
     0
 45
0.0
1001
ACAD
1000
AcDbSavedByObjectVersion
1070
     0
  0
VISUALSTYLE
  5
1FF8
102
{ACAD_REACTORS
330
1FF1
102
}
330
1FF1
100
AcDbVisualStyle
  2
3dWireframe
 70
     5
 71
     0
 72
     2
 73
     0
 90
        0
 40
-0.6
 41
-30.0
 62
     5
 63
     7
421
 16777215
 74
     1
 91
        4
 64
     7
 65
   257
 75
     1
175
     1
 42
1.0
 92
        0
 66
   257
 43
1.0
 76
     1
 77
     6
 78
     2
 67
     7
 79
     5
170
     0
171
     0
290
     0
174
     0
 93
        1
 44
0.0
173
     0
291
     0
 45
0.0
1001
ACAD
1000
AcDbSavedByObjectVersion
1070
     0
  0
VISUALSTYLE
  5
1FF6
102
{ACAD_REACTORS
330
1FF1
102
}
330
1FF1
100
AcDbVisualStyle
  2
Basic
 70
     7
 71
     1
 72
     0
 73
     1
 90
        0
 40
-0.6
 41
-30.0
 62
     5
 63
     7
421
 16777215
 74
     0
 91
        4
 64
     7
 65
   257
 75
     1
175
     1
 42
1.0
 92
        8
 66
     7
 43
1.0
 76
     1
 77
     6
 78
     2
 67
     7
 79
     5
170
     0
171
     0
290
     0
174
     0
 93
        1
 44
0.0
173
     0
291
     1
 45
0.0
1001
ACAD
1000
AcDbSavedByObjectVersion
1070
     0
  0
VISUALSTYLE
  5
1FFD
102
{ACAD_REACTORS
330
1FF1
102
}
330
1FF1
100
AcDbVisualStyle
  2
Brighten
 70
    12
 71
     2
 72
     2
 73
     0
 90
        0
 40
-0.6
 41
-30.0
 62
     5
 63
     7
421
 16777215
 74
     1
 91
        4
 64
     7
 65
   257
 75
     1
175
     1
 42
1.0
 92
        8
 66
     7
 43
1.0
 76
     1
 77
     6
 78
     2
 67
     7
 79
     5
170
     0
171
     0
290
     0
174
     0
 93
        1
 44
50.0
173
     0
291
     1
 45
0.0
1001
ACAD
1000
AcDbSavedByObjectVersion
1070
     0
  0
VISUALSTYLE
  5
2001
102
{ACAD_REACTORS
330
1FF1
102
}
330
1FF1
100
AcDbVisualStyle
  2
ColorChange
 70
    16
 71
     2
 72
     2
 73
     3
 90
        0
 40
-0.6
 41
-30.0
 62
     5
 63
     8
421
  8421504
 74
     1
 91
        4
 64
     7
 65
   257
 75
     1
175
     1
 42
1.0
 92
        8
 66
     8
424
  8421504
 43
1.0
 76
     1
 77
     6
 78
     2
 67
     7
 79
     5
170
     0
171
     0
290
     0
174
     0
 93
        1
 44
0.0
173
     0
291
     1
 45
0.0
1001
ACAD
1000
AcDbSavedByObjectVersion
1070
     0
  0
VISUALSTYLE
  5
1FFA
102
{ACAD_REACTORS
330
1FF1
102
}
330
1FF1
100
AcDbVisualStyle
  2
Conceptual
 70
     9
 71
     3
 72
     2
 73
     0
 90
        0
 40
-0.6
 41
-30.0
 62
     5
 63
     7
421
 16777215
 74
     2
 91
        2
 64
     7
 65
   257
 75
     1
175
     1
 42
40.0
 92
        8
 66
     7
 43
1.0
 76
     1
 77
     6
 78
     2
 67
     7
 79
     3
170
     0
171
     0
290
     0
174
     0
 93
        1
 44
0.0
173
     0
291
     0
 45
0.0
1001
ACAD
1000
AcDbSavedByObjectVersion
1070
     0
  0
VISUALSTYLE
  5
1FFC
102
{ACAD_REACTORS
330
1FF1
102
}
330
1FF1
100
AcDbVisualStyle
  2
Dim
 70
    11
 71
     2
 72
     2
 73
     0
 90
        0
 40
-0.6
 41
-30.0
 62
     5
 63
     7
421
 16777215
 74
     1
 91
        4
 64
     7
 65
   257
 75
     1
175
     1
 42
1.0
 92
        8
 66
     7
 43
1.0
 76
     1
 77
     6
 78
     2
 67
     7
 79
     5
170
     0
171
     0
290
     0
174
     0
 93
        1
 44
-50.0
173
     0
291
     1
 45
0.0
1001
ACAD
1000
AcDbSavedByObjectVersion
1070
     0
  0
VISUALSTYLE
  5
2000
102
{ACAD_REACTORS
330
1FF1
102
}
330
1FF1
100
AcDbVisualStyle
  2
Facepattern
 70
    15
 71
     2
 72
     2
 73
     0
 90
        0
 40
-0.6
 41
-30.0
 62
     5
 63
     7
421
 16777215
 74
     1
 91
        4
 64
     7
 65
   257
 75
     1
175
     1
 42
1.0
 92
        8
 66
     7
 43
1.0
 76
     1
 77
     6
 78
     2
 67
     7
 79
     5
170
     0
171
     0
290
     0
174
     0
 93
        1
 44
0.0
173
     0
291
     1
 45
0.0
1001
ACAD
1000
AcDbSavedByObjectVersion
1070
     0
  0
VISUALSTYLE
  5
1FF2
102
{ACAD_REACTORS
330
1FF1
102
}
330
1FF1
100
AcDbVisualStyle
  2
Flat
 70
     0
 71
     2
 72
     1
 73
     1
 90
        2
 40
-0.6
 41
30.0
 62
     5
 63
     7
421
 16777215
 74
     0
 91
        4
 64
     7
 65
   257
 75
     1
175
     1
 42
1.0
 92
        8
 66
     7
 43
1.0
 76
     1
 77
     6
 78
     2
 67
     7
 79
     5
170
     0
171
     0
290
     0
174
     0
 93
       13
 44
0.0
173
     0
291
     1
 45
0.0
1001
ACAD
1000
AcDbSavedByObjectVersion
1070
     0
  0
VISUALSTYLE
  5
1FF3
102
{ACAD_REACTORS
330
1FF1
102
}
330
1FF1
100
AcDbVisualStyle
  2
FlatWithEdges
 70
     1
 71
     2
 72
     1
 73
     1
 90
        2
 40
-0.6
 41
30.0
 62
     5
 63
     7
421
 16777215
 74
     1
 91
        4
 64
     7
 65
   257
 75
     1
175
     1
 42
1.0
 92
        0
 66
   257
 43
1.0
 76
     1
 77
     6
 78
     2
 67
     7
 79
     5
170
     0
171
     0
290
     0
174
     0
 93
       13
 44
0.0
173
     0
291
     1
 45
0.0
1001
ACAD
1000
AcDbSavedByObjectVersion
1070
     0
  0
VISUALSTYLE
  5
1FF4
102
{ACAD_REACTORS
330
1FF1
102
}
330
1FF1
100
AcDbVisualStyle
  2
Gouraud
 70
     2
 71
     2
 72
     2
 73
     1
 90
        2
 40
-0.6
 41
30.0
 62
     5
 63
     7
421
 16777215
 74
     0
 91
        4
 64
     7
 65
   257
 75
     1
175
     1
 42
1.0
 92
        0
 66
     7
 43
1.0
 76
     1
 77
     6
 78
     2
 67
     7
 79
     5
170
     0
171
     0
290
     0
174
     0
 93
       13
 44
0.0
173
     0
291
     1
 45
0.0
1001
ACAD
1000
AcDbSavedByObjectVersion
1070
     0
  0
VISUALSTYLE
  5
1FF5
102
{ACAD_REACTORS
330
1FF1
102
}
330
1FF1
100
AcDbVisualStyle
  2
GouraudWithEdges
 70
     3
 71
     2
 72
     2
 73
     1
 90
        2
 40
-0.6
 41
30.0
 62
     5
 63
     7
421
 16777215
 74
     1
 91
        4
 64
     7
 65
   257
 75
     1
175
     1
 42
1.0
 92
        0
 66
   257
 43
1.0
 76
     1
 77
     6
 78
     2
 67
     7
 79
     5
170
     0
171
     0
290
     0
174
     0
 93
       13
 44
0.0
173
     0
291
     1
 45
0.0
1001
ACAD
1000
AcDbSavedByObjectVersion
1070
     0
  0
VISUALSTYLE
  5
1FFF
102
{ACAD_REACTORS
330
1FF1
102
}
330
1FF1
100
AcDbVisualStyle
  2
Linepattern
 70
    14
 71
     2
 72
     2
 73
     0
 90
        0
 40
-0.6
 41
-30.0
 62
     5
 63
     7
421
 16777215
 74
     1
 91
        4
 64
     7
 65
   257
 75
     7
175
     7
 42
1.0
 92
        8
 66
     7
 43
1.0
 76
     1
 77
     6
 78
     2
 67
     7
 79
     5
170
     0
171
     0
290
     0
174
     0
 93
        1
 44
0.0
173
     0
291
     1
 45
0.0
1001
ACAD
1000
AcDbSavedByObjectVersion
1070
     0
  0
VISUALSTYLE
  5
1FFB
102
{ACAD_REACTORS
330
1FF1
102
}
330
1FF1
100
AcDbVisualStyle
  2
Realistic
 70
     8
 71
     2
 72
     2
 73
     0
 90
        0
 40
-0.6
 41
-30.0
 62
     5
 63
     7
421
 16777215
 74
     1
 91
        0
 64
     7
 65
   257
 75
     1
175
     1
 42
1.0
 92
        8
 66
     8
424
  7895160
 43
1.0
 76
     1
 77
     6
 78
     2
 67
     7
 79
     5
170
     0
171
     0
290
     0
174
     0
 93
       13
 44
0.0
173
     0
291
     0
 45
0.0
1001
ACAD
1000
AcDbSavedByObjectVersion
1070
     0
  0
VISUALSTYLE
  5
1FFE
102
{ACAD_REACTORS
330
1FF1
102
}
330
1FF1
100
AcDbVisualStyle
  2
Thicken
 70
    13
 71
     2
 72
     2
 73
     0
 90
        0
 40
-0.6
 41
-30.0
 62
     5
 63
     7
421
 16777215
 74
     1
 91
        4
 64
     7
 65
   257
 75
     1
175
     1
 42
1.0
 92
       12
 66
     7
 43
1.0
 76
     1
 77
     6
 78
     2
 67
     7
 79
     5
170
     0
171
     0
290
     0
174
     0
 93
        1
 44
0.0
173
     0
291
     1
 45
0.0
1001
ACAD
1000
AcDbSavedByObjectVersion
1070
     0
  0
DICTIONARYVAR
  5
1FD5
102
{ACAD_REACTORS
330
1FD4
102
}
330
1FD4
100
DictionaryVariables
280
     0
  1
STANDARD
  0
DICTIONARYVAR
  5
1FD6
102
{ACAD_REACTORS
330
1FD4
102
}
330
1FD4
100
DictionaryVariables
280
     0
  1
1
  0
DICTIONARYVAR
  5
1FD7
102
{ACAD_REACTORS
330
1FD4
102
}
330
1FD4
100
DictionaryVariables
280
     0
  1

  0
DICTIONARY
  5
2019
330
1FEF
100
AcDbDictionary
280
     1
281
     1
  3
ACAD_XREC_ROUNDTRIP
360
201A
  0
DICTIONARY
  5
2017
330
1FEE
100
AcDbDictionary
280
     1
281
     1
  3
ACAD_XREC_ROUNDTRIP
360
2018
  0
DICTIONARY
  5
201B
330
1FF0
100
AcDbDictionary
280
     1
281
     1
  3
ACAD_XREC_ROUNDTRIP
360
201C
  0
DICTIONARY
  5
2015
330
1F6F
100
AcDbDictionary
280
     1
281
     1
  3
ACAD_XREC_ROUNDTRIP
360
2016
  0
XRECORD
  5
201A
102
{ACAD_REACTORS
330
2019
102
}
330
2019
100
AcDbXrecord
280
     1
102
MATERIAL
148
0.0
149
0.0
149
0.0
 93
        0
 94
       63
282
     0
 72
     1
 77
     1
171
     1
175
     1
179
     1
273
     0
  0
XRECORD
  5
2018
102
{ACAD_REACTORS
330
2017
102
}
330
2017
100
AcDbXrecord
280
     1
102
MATERIAL
148
0.0
149
0.0
149
0.0
 93
        0
 94
       63
282
     0
 72
     1
 77
     1
171
     1
175
     1
179
     1
273
     0
  0
XRECORD
  5
201C
102
{ACAD_REACTORS
330
201B
102
}
330
201B
100
AcDbXrecord
280
     1
102
MATERIAL
148
0.0
149
0.0
149
0.0
 93
        0
 94
       63
282
     0
 72
     1
 77
     1
171
     1
175
     1
179
     1
273
     0
  0
XRECORD
  5
2016
102
{ACAD_REACTORS
330
2015
102
}
330
2015
100
AcDbXrecord
280
     1
102
ACAD_ROUNDTRIP_PRE2007_TABLESTYLE
 90
        4
 91
        0
  1

 92
        4
 93
        0
  2

 94
        4
 95
        0
  3

  0
ENDSEC
  0
EOF
