  0
SECTION
  2
HEADER
  9
$ACADVER
  1
AC1018
  9
$ACADMAINTVER
 70
   104
  9
$DWGCODEPAGE
  3
ANSI_1252
  9
$LASTSAVEDBY
  1
user
  9
$INSBASE
 10
0.0
 20
0.0
 30
0.0
  9
$EXTMIN
 10
856.3204301548163
 20
588.5492183899819
 30
0.0
  9
$EXTMAX
 10
885.7367703445842
 20
606.5413084467401
 30
0.0
  9
$LIMMIN
 10
0.0
 20
0.0
  9
$LIMMAX
 10
420.0
 20
297.0
  9
$ORTHOMODE
 70
     1
  9
$REGENMODE
 70
     1
  9
$FILLMODE
 70
     1
  9
$QTEXTMODE
 70
     0
  9
$MIRRTEXT
 70
     0
  9
$LTSCALE
 40
1.0
  9
$ATTMODE
 70
     1
  9
$TEXTSIZE
 40
0.3937
  9
$TRACEWID
 40
1.0
  9
$TEXTSTYLE
  7
\U+C2A4\U+D0C0\U+C77C2
  9
$CLAYER
  8
0
  9
$CELTYPE
  6
ByLayer
  9
$CECOLOR
 62
   256
  9
$CELTSCALE
 40
1.0
  9
$DISPSILH
 70
     0
  9
$DIMSCALE
 40
1.0
  9
$DIMASZ
 40
0.2
  9
$DIMEXO
 40
0.1
  9
$DIMDLI
 40
0.039
  9
$DIMRND
 40
0.0
  9
$DIMDLE
 40
0.0
  9
$DIMEXE
 40
0.2
  9
$DIMTP
 40
0.0
  9
$DIMTM
 40
0.0
  9
$DIMTXT
 40
2.5
  9
$DIMCEN
 40
0.039
  9
$DIMTSZ
 40
0.0
  9
$DIMTOL
 70
     0
  9
$DIMLIM
 70
     0
  9
$DIMTIH
 70
     0
  9
$DIMTOH
 70
     0
  9
$DIMSE1
 70
     0
  9
$DIMSE2
 70
     0
  9
$DIMTAD
 70
     1
  9
$DIMZIN
 70
     8
  9
$DIMBLK
  1

  9
$DIMASO
 70
     1
  9
$DIMSHO
 70
     1
  9
$DIMPOST
  1

  9
$DIMAPOST
  1

  9
$DIMALT
 70
     0
  9
$DIMALTD
 70
     2
  9
$DIMALTF
 40
0.0394
  9
$DIMLFAC
 40
1.0
  9
$DIMTOFL
 70
     1
  9
$DIMTVP
 40
1.0
  9
$DIMTIX
 70
     0
  9
$DIMSOXD
 70
     0
  9
$DIMSAH
 70
     0
  9
$DIMBLK1
  1

  9
$DIMBLK2
  1

  9
$DIMSTYLE
  2
DIN
  9
$DIMCLRD
 70
     0
  9
$DIMCLRE
 70
     0
  9
$DIMCLRT
 70
     0
  9
$DIMTFAC
 40
1.0
  9
$DIMGAP
 40
0.05
  9
$DIMJUST
 70
     0
  9
$DIMSD1
 70
     0
  9
$DIMSD2
 70
     0
  9
$DIMTOLJ
 70
     1
  9
$DIMTZIN
 70
     0
  9
$DIMALTZ
 70
     0
  9
$DIMALTTZ
 70
     0
  9
$DIMUPT
 70
     0
  9
$DIMDEC
 70
     4
  9
$DIMTDEC
 70
     4
  9
$DIMALTU
 70
     8
  9
$DIMALTTD
 70
     2
  9
$DIMTXSTY
  7
\U+C2A4\U+D0C0\U+C77C2
  9
$DIMAUNIT
 70
     0
  9
$DIMADEC
 70
     0
  9
$DIMALTRND
 40
0.0
  9
$DIMAZIN
 70
     0
  9
$DIMDSEP
 70
    46
  9
$DIMATFIT
 70
     3
  9
$DIMFRAC
 70
     0
  9
$DIMLDRBLK
  1

  9
$DIMLUNIT
 70
     6
  9
$DIMLWD
 70
    -2
  9
$DIMLWE
 70
    -2
  9
$DIMTMOVE
 70
     0
  9
$LUNITS
 70
     3
  9
$LUPREC
 70
     4
  9
$SKETCHINC
 40
1.0
  9
$FILLETRAD
 40
1.0
  9
$AUNITS
 70
     0
  9
$AUPREC
 70
     0
  9
$MENU
  1
.
  9
$ELEVATION
 40
0.0
  9
$PELEVATION
 40
0.0
  9
$THICKNESS
 40
0.0
  9
$LIMCHECK
 70
     0
  9
$CHAMFERA
 40
0.0
  9
$CHAMFERB
 40
0.0
  9
$CHAMFERC
 40
0.0
  9
$CHAMFERD
 40
0.0
  9
$SKPOLY
 70
     0
  9
$TDCREATE
 40
2454393.137688252
  9
$TDUCREATE
 40
2454393.346021586
  9
$TDUPDATE
 40
2458464.607025787
  9
$TDUUPDATE
 40
2458464.815359120
  9
$TDINDWG
 40
0.8233264005
  9
$TDUSRTIMER
 40
0.8233182639
  9
$USRTIMER
 70
     1
  9
$ANGBASE
 50
0.0
  9
$ANGDIR
 70
     0
  9
$PDMODE
 70
     0
  9
$PDSIZE
 40
0.0
  9
$PLINEWID
 40
0.0
  9
$SPLFRAME
 70
     0
  9
$SPLINETYPE
 70
     6
  9
$SPLINESEGS
 70
     8
  9
$HANDSEED
  5
2132
  9
$SURFTAB1
 70
     6
  9
$SURFTAB2
 70
     6
  9
$SURFTYPE
 70
     6
  9
$SURFU
 70
     6
  9
$SURFV
 70
     6
  9
$UCSBASE
  2

  9
$UCSNAME
  2

  9
$UCSORG
 10
0.0
 20
0.0
 30
0.0
  9
$UCSXDIR
 10
1.0
 20
0.0
 30
0.0
  9
$UCSYDIR
 10
0.0
 20
1.0
 30
0.0
  9
$UCSORTHOREF
  2

  9
$UCSORTHOVIEW
 70
     0
  9
$UCSORGTOP
 10
0.0
 20
0.0
 30
0.0
  9
$UCSORGBOTTOM
 10
0.0
 20
0.0
 30
0.0
  9
$UCSORGLEFT
 10
0.0
 20
0.0
 30
0.0
  9
$UCSORGRIGHT
 10
0.0
 20
0.0
 30
0.0
  9
$UCSORGFRONT
 10
0.0
 20
0.0
 30
0.0
  9
$UCSORGBACK
 10
0.0
 20
0.0
 30
0.0
  9
$PUCSBASE
  2

  9
$PUCSNAME
  2

  9
$PUCSORG
 10
0.0
 20
0.0
 30
0.0
  9
$PUCSXDIR
 10
1.0
 20
0.0
 30
0.0
  9
$PUCSYDIR
 10
0.0
 20
1.0
 30
0.0
  9
$PUCSORTHOREF
  2

  9
$PUCSORTHOVIEW
 70
     0
  9
$PUCSORGTOP
 10
0.0
 20
0.0
 30
0.0
  9
$PUCSORGBOTTOM
 10
0.0
 20
0.0
 30
0.0
  9
$PUCSORGLEFT
 10
0.0
 20
0.0
 30
0.0
  9
$PUCSORGRIGHT
 10
0.0
 20
0.0
 30
0.0
  9
$PUCSORGFRONT
 10
0.0
 20
0.0
 30
0.0
  9
$PUCSORGBACK
 10
0.0
 20
0.0
 30
0.0
  9
$USERI1
 70
     0
  9
$USERI2
 70
     0
  9
$USERI3
 70
     0
  9
$USERI4
 70
     0
  9
$USERI5
 70
     0
  9
$USERR1
 40
0.0
  9
$USERR2
 40
0.0
  9
$USERR3
 40
0.0
  9
$USERR4
 40
0.0
  9
$USERR5
 40
0.0
  9
$WORLDVIEW
 70
     1
  9
$SHADEDGE
 70
     3
  9
$SHADEDIF
 70
    70
  9
$TILEMODE
 70
     1
  9
$MAXACTVP
 70
    64
  9
$PINSBASE
 10
0.0
 20
0.0
 30
0.0
  9
$PLIMCHECK
 70
     0
  9
$PEXTMIN
 10
1.000000000000000E+20
 20
1.000000000000000E+20
 30
1.000000000000000E+20
  9
$PEXTMAX
 10
-1.000000000000000E+20
 20
-1.000000000000000E+20
 30
-1.000000000000000E+20
  9
$PLIMMIN
 10
0.0071835950613108
 20
0.0009369707933118
  9
$PLIMMAX
 10
841.0071835950612
 20
594.0009369707931
  9
$UNITMODE
 70
     0
  9
$VISRETAIN
 70
     1
  9
$PLINEGEN
 70
     0
  9
$PSLTSCALE
 70
     1
  9
$TREEDEPTH
 70
  3020
  9
$CMLSTYLE
  2
Standard
  9
$CMLJUST
 70
     0
  9
$CMLSCALE
 40
20.0
  9
$PROXYGRAPHICS
 70
     1
  9
$MEASUREMENT
 70
     1
  9
$CELWEIGHT
370
    -1
  9
$ENDCAPS
280
     0
  9
$JOINSTYLE
280
     0
  9
$LWDISPLAY
290
     0
  9
$INSUNITS
 70
     1
  9
$HYPERLINKBASE
  1

  9
$STYLESHEET
  1

  9
$XEDIT
290
     1
  9
$CEPSNTYPE
380
     0
  9
$PSTYLEMODE
290
     1
  9
$FINGERPRINTGUID
  2
{AC2FA5CB-6F18-4BC2-9C5F-F25C10372E5B}
  9
$VERSIONGUID
  2
{9E10EFF1-E516-469F-AD18-C0498AA2F180}
  9
$EXTNAMES
290
     1
  9
$PSVPSCALE
 40
0.0
  9
$OLESTARTUP
290
     0
  9
$SORTENTS
280
   127
  9
$INDEXCTL
280
     0
  9
$HIDETEXT
280
     0
  9
$XCLIPFRAME
290
     0
  9
$HALOGAP
280
     0
  9
$OBSCOLOR
 70
   257
  9
$OBSLTYPE
280
     0
  9
$INTERSECTIONDISPLAY
280
     0
  9
$INTERSECTIONCOLOR
 70
   257
  9
$DIMASSOC
280
     1
  9
$PROJECTNAME
  1

  0
ENDSEC
  0
SECTION
  2
CLASSES
  0
CLASS
  1
ACDBDICTIONARYWDFLT
  2
AcDbDictionaryWithDefault
  3
ObjectDBX Classes
 90
        0
 91
        1
280
     0
281
     0
  0
CLASS
  1
PLOTSETTINGS
  2
AcDbPlotSettings
  3
ObjectDBX Classes
 90
        0
 91
        0
280
     0
281
     0
  0
CLASS
  1
DICTIONARYVAR
  2
AcDbDictionaryVar
  3
ObjectDBX Classes
 90
        0
 91
        3
280
     0
281
     0
  0
CLASS
  1
TABLESTYLE
  2
AcDbTableStyle
  3
ObjectDBX Classes
 90
     4095
 91
        1
280
     0
281
     0
  0
CLASS
  1
DIMASSOC
  2
AcDbDimAssoc
  3
"AcDbDimAssoc|Product Desc:     AcDim ARX App For Dimension|Company:          Autodesk, Inc.|WEB Address:      www.autodesk.com"
 90
        0
 91
        0
280
     0
281
     0
  0
CLASS
  1
SORTENTSTABLE
  2
AcDbSortentsTable
  3
ObjectDBX Classes
 90
        0
 91
        2
280
     0
281
     0
  0
CLASS
  1
MATERIAL
  2
AcDbMaterial
  3
ObjectDBX Classes
 90
     1024
 91
        3
280
     0
281
     0
  0
CLASS
  1
VISUALSTYLE
  2
AcDbVisualStyle
  3
ObjectDBX Classes
 90
     4095
 91
       16
280
     0
281
     0
  0
ENDSEC
  0
SECTION
  2
TABLES
  0
TABLE
  2
VPORT
  5
19
330
0
100
AcDbSymbolTable
 70
     1
  0
VPORT
  5
20FE
330
19
100
AcDbSymbolTableRecord
100
AcDbViewportTableRecord
  2
*Active
 70
     0
 10
0.0
 20
0.0
 11
1.0
 21
1.0
 12
873.5420690009506
 22
594.7439522728908
 13
0.0
 23
0.0
 14
10.0
 24
10.0
 15
10.0
 25
10.0
 16
0.0
 26
0.0
 36
1.0
 17
0.0
 27
0.0
 37
0.0
 40
8.661098386469575
 41
2.829157175398633
 42
50.0
 43
0.0
 44
0.0
 50
0.0
 51
0.0
 71
     0
 72
  1000
 73
     1
 74
     3
 75
     0
 76
     0
 77
     0
 78
     0
281
     0
 65
     1
110
0.0
120
0.0
130
0.0
111
1.0
121
0.0
131
0.0
112
0.0
122
1.0
132
0.0
 79
     0
146
0.0
  0
ENDTAB
  0
TABLE
  2
LTYPE
  5
14
330
0
100
AcDbSymbolTable
 70
     2
  0
LTYPE
  5
15
330
14
100
AcDbSymbolTableRecord
100
AcDbLinetypeTableRecord
  2
ByBlock
 70
     0
  3

 72
    65
 73
     0
 40
0.0
  0
LTYPE
  5
16
330
14
100
AcDbSymbolTableRecord
100
AcDbLinetypeTableRecord
  2
ByLayer
 70
     0
  3

 72
    65
 73
     0
 40
0.0
  0
LTYPE
  5
8
330
14
100
AcDbSymbolTableRecord
100
AcDbLinetypeTableRecord
  2
Continuous
 70
     0
  3
Solid line
 72
    65
 73
     0
 40
0.0
  0
LTYPE
  5
1811
330
14
100
AcDbSymbolTableRecord
100
AcDbLinetypeTableRecord
  2
ACAD_ISO04W100
 70
     0
  3
ISO long-dash dot ____ . ____ . ____ . ____ . _
 72
    65
 73
     4
 40
30.0
 49
24.0
 74
     0
 49
-3.0
 74
     0
 49
0.0
 74
     0
 49
-3.0
 74
     0
  0
ENDTAB
  0
TABLE
  2
LAYER
  5
10
102
{ACAD_XDICTIONARY
360
1CFD
102
}
330
0
100
AcDbSymbolTable
 70
     9
  0
LAYER
  5
4
330
10
100
AcDbSymbolTableRecord
100
AcDbLayerTableRecord
  2
0
 70
     0
 62
     7
  6
Continuous
370
    -3
390
5
  0
LAYER
  5
8E
330
10
100
AcDbSymbolTableRecord
100
AcDbLayerTableRecord
  2
07
 70
     0
 62
     7
  6
Continuous
370
    -3
390
5
  0
LAYER
  5
8F
330
10
100
AcDbSymbolTableRecord
100
AcDbLayerTableRecord
  2
035
 70
     0
 62
     5
  6
Continuous
370
    -3
390
5
  0
LAYER
  5
90
330
10
100
AcDbSymbolTableRecord
100
AcDbLayerTableRecord
  2
05
 70
     0
 62
     6
  6
Continuous
370
    -3
390
5
  0
LAYER
  5
91
330
10
100
AcDbSymbolTableRecord
100
AcDbLayerTableRecord
  2
025
 70
     0
 62
     1
  6
Continuous
370
    -3
390
5
  0
LAYER
  5
5CE
330
10
100
AcDbSymbolTableRecord
100
AcDbLayerTableRecord
  2
Defpoints
 70
     0
 62
     7
  6
Continuous
290
     0
370
    -3
390
5
  0
LAYER
  5
62B
330
10
100
AcDbSymbolTableRecord
100
AcDbLayerTableRecord
  2
\U+7C97\U+5B9E\U+7EBF
 70
     0
 62
     7
  6
Continuous
370
    30
390
5
  0
LAYER
  5
62C
330
10
100
AcDbSymbolTableRecord
100
AcDbLayerTableRecord
  2
\U+6807\U+6CE8\U+7EBF
 70
     0
 62
     7
  6
Continuous
370
    13
390
5
  0
LAYER
  5
1812
330
10
100
AcDbSymbolTableRecord
100
AcDbLayerTableRecord
  2
\U+4E2D\U+5FC3\U+7EBF
 70
     0
 62
     7
  6
ACAD_ISO04W100
370
    18
390
5
  0
ENDTAB
  0
TABLE
  2
STYLE
  5
11
330
0
100
AcDbSymbolTable
 70
     4
  0
STYLE
  5
12
330
11
100
AcDbSymbolTableRecord
100
AcDbTextStyleTableRecord
  2
Standard
 70
     0
 40
0.0
 41
1.0
 50
0.0
 71
     0
 42
2.5
  3
txt
  4

  0
STYLE
  5
31
330
11
100
AcDbSymbolTableRecord
100
AcDbTextStyleTableRecord
  2
ISO Proportional
 70
     0
 40
0.0
 41
1.0
 50
0.0
 71
     0
 42
2.5
  3
isocp.shx
  4

  0
STYLE
  5
B96
330
11
100
AcDbSymbolTableRecord
100
AcDbTextStyleTableRecord
  2
\U+C2A4\U+D0C0\U+C77C1
 70
     0
 40
0.1968
 41
1.0
 50
0.0
 71
     0
 42
2.5
  3
txt.shx
  4

  0
STYLE
  5
B97
330
11
100
AcDbSymbolTableRecord
100
AcDbTextStyleTableRecord
  2
\U+C2A4\U+D0C0\U+C77C2
 70
     0
 40
0.3937
 41
1.0
 50
0.0
 71
     0
 42
0.3937
  3
txt.shx
  4

  0
ENDTAB
  0
TABLE
  2
VIEW
  5
17
330
0
100
AcDbSymbolTable
 70
     0
  0
ENDTAB
  0
TABLE
  2
UCS
  5
18
330
0
100
AcDbSymbolTable
 70
     0
  0
ENDTAB
  0
TABLE
  2
APPID
  5
1B
330
0
100
AcDbSymbolTable
 70
    12
  0
APPID
  5
1C
330
1B
100
AcDbSymbolTableRecord
100
AcDbRegAppTableRecord
  2
ACAD
 70
     0
  0
APPID
  5
346
330
1B
100
AcDbSymbolTableRecord
100
AcDbRegAppTableRecord
  2
GENIUS_GENTRA_14
 70
     0
  0
APPID
  5
347
330
1B
100
AcDbSymbolTableRecord
100
AcDbRegAppTableRecord
  2
GENIUS_GENODEF_13
 70
     0
  0
APPID
  5
348
330
1B
100
AcDbSymbolTableRecord
100
AcDbRegAppTableRecord
  2
GENIUS_GENOBJ-N-TIT_13
 70
     0
  0
APPID
  5
349
330
1B
100
AcDbSymbolTableRecord
100
AcDbRegAppTableRecord
  2
GENIUS_GENTITLE_13
 70
     0
  0
APPID
  5
34A
330
1B
100
AcDbSymbolTableRecord
100
AcDbRegAppTableRecord
  2
GENIUS_GENOENT_13
 70
     0
  0
APPID
  5
34B
330
1B
100
AcDbSymbolTableRecord
100
AcDbRegAppTableRecord
  2
GENIUS_GENOREF_13
 70
     0
  0
APPID
  5
34C
330
1B
100
AcDbSymbolTableRecord
100
AcDbRegAppTableRecord
  2
GENIUS_GENOLIS_13
 70
     0
  0
APPID
  5
34D
330
1B
100
AcDbSymbolTableRecord
100
AcDbRegAppTableRecord
  2
GENIUS_GENOBJ-N-SDF_13
 70
     0
  0
APPID
  5
34E
330
1B
100
AcDbSymbolTableRecord
100
AcDbRegAppTableRecord
  2
GENIUS_GENSCREG_13
 70
     0
  0
APPID
  5
886
330
1B
100
AcDbSymbolTableRecord
100
AcDbRegAppTableRecord
  2
ACAD_DSTYLE_DIMTEXT_FILL
 70
     0
  0
APPID
  5
B8B
330
1B
100
AcDbSymbolTableRecord
100
AcDbRegAppTableRecord
  2
ACAD_PSEXT
 70
     0
  0
ENDTAB
  0
TABLE
  2
DIMSTYLE
  5
1D
330
0
100
AcDbSymbolTable
 70
     4
100
AcDbDimStyleTable
 71
     1
340
1E
  0
DIMSTYLE
105
1E
330
1D
100
AcDbSymbolTableRecord
100
AcDbDimStyleTableRecord
  2
DIN
 70
     0
 41
2.5
 42
0.625
 43
3.75
 44
1.25
 74
     0
 77
     1
 78
     8
140
2.5
141
2.5
143
0.0394
145
1.0
147
0.625
172
     1
273
     8
277
     6
340
12
  0
DIMSTYLE
105
62D
330
1D
100
AcDbSymbolTableRecord
100
AcDbDimStyleTableRecord
  2
ISO-25
 70
     0
 41
10.0
 42
0.625
 43
3.75
 44
10.0
 73
     0
 74
     0
 77
     1
 78
     8
140
20.0
141
2.5
143
0.03937007874016
147
10.0
171
     3
172
     1
271
     2
272
     2
274
     3
278
    44
279
     1
283
     0
284
     8
340
12
  0
DIMSTYLE
105
62E
330
1D
100
AcDbSymbolTableRecord
100
AcDbDimStyleTableRecord
  2
\U+526F\U+672CISO-25
 70
     0
 41
15.0
 42
0.625
 43
3.75
 44
2.0
 73
     0
 74
     0
 77
     1
 78
     8
140
22.0
141
2.5
143
0.03937007874016
147
10.0
171
     3
179
     1
271
     1
272
     1
274
     3
278
    44
279
     1
283
     0
284
     8
340
12
  0
DIMSTYLE
105
62F
330
1D
100
AcDbSymbolTableRecord
100
AcDbDimStyleTableRecord
  2
\U+526F\U+672C (2)ISO-25
 70
     0
 41
10.0
 42
0.625
 43
3.75
 44
10.0
 73
     0
 74
     0
 77
     1
 78
     8
140
10.0
141
2.5
143
0.03937007874016
147
10.0
171
     3
172
     1
271
     2
272
     2
274
     3
278
    44
283
     0
284
     8
340
12
  0
ENDTAB
  0
TABLE
  2
BLOCK_RECORD
  5
1
330
0
100
AcDbSymbolTable
 70
    13
  0
BLOCK_RECORD
  5
2
102
{ACAD_XDICTIONARY
360
95E
102
}
330
1
100
AcDbSymbolTableRecord
100
AcDbBlockTableRecord
  2
*Model_Space
340
A
  0
BLOCK_RECORD
  5
C
330
1
100
AcDbSymbolTableRecord
100
AcDbBlockTableRecord
  2
*Paper_Space
340
F
  0
BLOCK_RECORD
  5
1FA6
330
1
100
AcDbSymbolTableRecord
100
AcDbBlockTableRecord
  2
*D0
340
0
  0
BLOCK_RECORD
  5
1FB3
330
1
100
AcDbSymbolTableRecord
100
AcDbBlockTableRecord
  2
*D1
340
0
  0
BLOCK_RECORD
  5
1FC0
330
1
100
AcDbSymbolTableRecord
100
AcDbBlockTableRecord
  2
*D2
340
0
  0
BLOCK_RECORD
  5
1FCD
330
1
100
AcDbSymbolTableRecord
100
AcDbBlockTableRecord
  2
*D3
340
0
  0
BLOCK_RECORD
  5
1FDA
330
1
100
AcDbSymbolTableRecord
100
AcDbBlockTableRecord
  2
*D4
340
0
  0
BLOCK_RECORD
  5
1FE7
330
1
100
AcDbSymbolTableRecord
100
AcDbBlockTableRecord
  2
*D5
340
0
  0
BLOCK_RECORD
  5
1FF4
330
1
100
AcDbSymbolTableRecord
100
AcDbBlockTableRecord
  2
*D6
340
0
  0
BLOCK_RECORD
  5
1FFD
330
1
100
AcDbSymbolTableRecord
100
AcDbBlockTableRecord
  2
*D7
340
0
  0
BLOCK_RECORD
  5
2006
330
1
100
AcDbSymbolTableRecord
100
AcDbBlockTableRecord
  2
*D8
340
0
  0
BLOCK_RECORD
  5
2019
330
1
100
AcDbSymbolTableRecord
100
AcDbBlockTableRecord
  2
*D9
340
0
  0
BLOCK_RECORD
  5
2022
330
1
100
AcDbSymbolTableRecord
100
AcDbBlockTableRecord
  2
*D10
340
0
  0
BLOCK_RECORD
  5
202B
330
1
100
AcDbSymbolTableRecord
100
AcDbBlockTableRecord
  2
*D11
340
0
  0
ENDTAB
  0
ENDSEC
  0
SECTION
  2
BLOCKS
  0
BLOCK
  5
3
330
2
100
AcDbEntity
  8
0
100
AcDbBlockBegin
  2
*Model_Space
 70
     2
 10
0.0
 20
0.0
 30
0.0
  3
*Model_Space
  1

  0
ENDBLK
  5
9
330
2
100
AcDbEntity
  8
0
100
AcDbBlockEnd
  0
BLOCK
  5
D
330
C
100
AcDbEntity
 67
     1
  8
0
100
AcDbBlockBegin
  2
*Paper_Space
 70
     0
 10
0.0
 20
0.0
 30
0.0
  3
*Paper_Space
  1

  0
ENDBLK
  5
E
330
C
100
AcDbEntity
 67
     1
  8
0
100
AcDbBlockEnd
  0
BLOCK
  5
1FB0
330
1FA6
100
AcDbEntity
  8
0
100
AcDbBlockBegin
  2
*D0
 70
     1
 10
0.0
 20
0.0
 30
0.0
  3
*D0
  1

  0
LINE
  5
2096
330
1FA6
100
AcDbEntity
  8
0
 62
     0
370
    -2
100
AcDbLine
 10
860.5905001548171
 20
588.5492184467388
 30
0.0
 11
855.0809881207314
 21
588.5492184467388
 31
0.0
  0
LINE
  5
2097
330
1FA6
100
AcDbEntity
  8
0
 62
     0
370
    -2
100
AcDbLine
 10
860.5905001548164
 20
606.5413084467401
 30
0.0
 11
855.0809881207314
 21
606.5413084467401
 31
0.0
  0
LINE
  5
2098
330
1FA6
100
AcDbEntity
  8
0
 62
     0
370
    -2
100
AcDbLine
 10
855.2809881207315
 20
588.7492184467387
 30
0.0
 11
855.2809881207315
 21
606.34130844674
 31
0.0
  0
SOLID
  5
2099
330
1FA6
100
AcDbEntity
  8
0
 62
     0
100
AcDbTrace
 10
855.2476547873983
 20
588.7492184467387
 30
0.0
 11
855.3143214540648
 21
588.7492184467387
 31
0.0
 12
855.2809881207315
 22
588.5492184467388
 32
0.0
 13
855.2809881207315
 23
588.5492184467388
 33
0.0
  0
SOLID
  5
209A
330
1FA6
100
AcDbEntity
  8
0
 62
     0
100
AcDbTrace
 10
855.2476547873983
 20
606.34130844674
 30
0.0
 11
855.3143214540648
 21
606.34130844674
 31
0.0
 12
855.2809881207315
 22
606.5413084467401
 32
0.0
 13
855.2809881207315
 23
606.5413084467401
 33
0.0
  0
MTEXT
  5
209B
330
1FA6
100
AcDbEntity
  8
0
 62
     0
100
AcDbMText
 10
855.0341381207314
 20
597.5452634467396
 30
0.0
 40
0.3937
 41
0.0
 71
     5
 72
     1
  1
\A1;17.9921
  7
\U+C2A4\U+D0C0\U+C77C2
 11
0.0000000000000001
 21
1.0
 31
0.0
 73
     1
 44
1.0
  0
POINT
  5
209C
330
1FA6
100
AcDbEntity
  8
Defpoints
 62
     0
100
AcDbPoint
 10
860.6905001548172
 20
588.5492184467388
 30
0.0
  0
POINT
  5
209D
330
1FA6
100
AcDbEntity
  8
Defpoints
 62
     0
100
AcDbPoint
 10
860.6905001548167
 20
606.5413084467401
 30
0.0
  0
POINT
  5
209E
330
1FA6
100
AcDbEntity
  8
Defpoints
 62
     0
100
AcDbPoint
 10
855.2809881207315
 20
606.5413084467401
 30
0.0
  0
ENDBLK
  5
1FB1
330
1FA6
100
AcDbEntity
  8
0
100
AcDbBlockEnd
  0
BLOCK
  5
1FBD
330
1FB3
100
AcDbEntity
  8
0
100
AcDbBlockBegin
  2
*D1
 70
     1
 10
0.0
 20
0.0
 30
0.0
  3
*D1
  1

  0
LINE
  5
1FB4
330
1FB3
100
AcDbEntity
  8
0
 62
     0
370
    -2
100
AcDbLine
 10
860.6530139025592
 20
588.3129983899817
 30
0.0
 11
854.2745956816805
 21
588.3129983899817
 31
0.0
  0
LINE
  5
1FB5
330
1FB3
100
AcDbEntity
  8
0
 62
     0
370
    -2
100
AcDbLine
 10
860.6530139025592
 20
606.7775283899832
 30
0.0
 11
854.2745956816805
 21
606.7775283899832
 31
0.0
  0
LINE
  5
1FB6
330
1FB3
100
AcDbEntity
  8
0
 62
     0
370
    -2
100
AcDbLine
 10
854.4745956816806
 20
588.5129983899818
 30
0.0
 11
854.4745956816806
 21
606.5775283899832
 31
0.0
  0
SOLID
  5
1FB7
330
1FB3
100
AcDbEntity
  8
0
 62
     0
100
AcDbTrace
 10
854.4412623483474
 20
588.5129983899818
 30
0.0
 11
854.5079290150138
 21
588.5129983899818
 31
0.0
 12
854.4745956816806
 22
588.3129983899817
 32
0.0
 13
854.4745956816806
 23
588.3129983899817
 33
0.0
  0
SOLID
  5
1FB8
330
1FB3
100
AcDbEntity
  8
0
 62
     0
100
AcDbTrace
 10
854.4412623483474
 20
606.5775283899832
 30
0.0
 11
854.5079290150138
 21
606.5775283899832
 31
0.0
 12
854.4745956816806
 22
606.7775283899832
 32
0.0
 13
854.4745956816806
 23
606.7775283899832
 33
0.0
  0
MTEXT
  5
1FB9
330
1FB3
100
AcDbEntity
  8
0
 62
     0
100
AcDbMText
 10
854.2277456816803
 20
597.5452633899829
 30
0.0
 40
0.3937
 41
0.0
 71
     5
 72
     1
  1
\A1;18.4645
  7
\U+C2A4\U+D0C0\U+C77C2
 11
0.0000000000000001
 21
1.0
 31
0.0
 73
     1
 44
1.0
  0
POINT
  5
1FBA
330
1FB3
100
AcDbEntity
  8
Defpoints
 62
     0
100
AcDbPoint
 10
860.7530139025593
 20
588.3129983899817
 30
0.0
  0
POINT
  5
1FBB
330
1FB3
100
AcDbEntity
  8
Defpoints
 62
     0
100
AcDbPoint
 10
860.7530139025593
 20
606.7775283899832
 30
0.0
  0
POINT
  5
1FBC
330
1FB3
100
AcDbEntity
  8
Defpoints
 62
     0
100
AcDbPoint
 10
854.4745956816806
 20
606.7775283899832
 30
0.0
  0
ENDBLK
  5
1FBE
330
1FB3
100
AcDbEntity
  8
0
100
AcDbBlockEnd
  0
BLOCK
  5
1FCA
330
1FC0
100
AcDbEntity
  8
0
100
AcDbBlockBegin
  2
*D2
 70
     1
 10
0.0
 20
0.0
 30
0.0
  3
*D2
  1

  0
LINE
  5
1FC1
330
1FC0
100
AcDbEntity
  8
0
 62
     0
370
    -2
100
AcDbLine
 10
856.3829439025592
 20
592.8192883899818
 30
0.0
 11
856.3829439025592
 21
587.2300801687551
 31
0.0
  0
LINE
  5
1FC2
330
1FC0
100
AcDbEntity
  8
0
 62
     0
370
    -2
100
AcDbLine
 10
885.6742239025548
 20
592.8192883899831
 30
0.0
 11
885.6742239025548
 21
587.2300801687551
 31
0.0
  0
LINE
  5
1FC3
330
1FC0
100
AcDbEntity
  8
0
 62
     0
370
    -2
100
AcDbLine
 10
856.5829439025595
 20
587.4300801687549
 30
0.0
 11
885.4742239025547
 21
587.4300801687549
 31
0.0
  0
SOLID
  5
1FC4
330
1FC0
100
AcDbEntity
  8
0
 62
     0
100
AcDbTrace
 10
856.5829439025595
 20
587.4634135020881
 30
0.0
 11
856.5829439025595
 21
587.3967468354217
 31
0.0
 12
856.3829439025592
 22
587.4300801687549
 32
0.0
 13
856.3829439025592
 23
587.4300801687549
 33
0.0
  0
SOLID
  5
1FC5
330
1FC0
100
AcDbEntity
  8
0
 62
     0
100
AcDbTrace
 10
885.4742239025547
 20
587.4634135020881
 30
0.0
 11
885.4742239025547
 21
587.3967468354217
 31
0.0
 12
885.6742239025548
 22
587.4300801687549
 32
0.0
 13
885.6742239025548
 23
587.4300801687549
 33
0.0
  0
MTEXT
  5
1FC6
330
1FC0
100
AcDbEntity
  8
0
 62
     0
100
AcDbMText
 10
871.0285839025571
 20
587.6769301687549
 30
0.0
 40
0.3937
 41
0.0
 71
     5
 72
     1
  1
\A1;29.2913
  7
\U+C2A4\U+D0C0\U+C77C2
 73
     1
 44
1.0
  0
POINT
  5
1FC7
330
1FC0
100
AcDbEntity
  8
Defpoints
 62
     0
100
AcDbPoint
 10
856.3829439025592
 20
592.9192883899816
 30
0.0
  0
POINT
  5
1FC8
330
1FC0
100
AcDbEntity
  8
Defpoints
 62
     0
100
AcDbPoint
 10
885.6742239025548
 20
592.9192883899832
 30
0.0
  0
POINT
  5
1FC9
330
1FC0
100
AcDbEntity
  8
Defpoints
 62
     0
100
AcDbPoint
 10
885.6742239025548
 20
587.4300801687549
 30
0.0
  0
ENDBLK
  5
1FCB
330
1FC0
100
AcDbEntity
  8
0
100
AcDbBlockEnd
  0
BLOCK
  5
1FD7
330
1FCD
100
AcDbEntity
  8
0
100
AcDbBlockBegin
  2
*D3
 70
     1
 10
0.0
 20
0.0
 30
0.0
  3
*D3
  1

  0
LINE
  5
1FCE
330
1FCD
100
AcDbEntity
  8
0
 62
     0
370
    -2
100
AcDbLine
 10
856.1467239025592
 20
592.8192883899818
 30
0.0
 11
856.1467239025592
 21
586.5446126304566
 31
0.0
  0
LINE
  5
1FCF
330
1FCD
100
AcDbEntity
  8
0
 62
     0
370
    -2
100
AcDbLine
 10
885.9104439025548
 20
592.8192883899766
 30
0.0
 11
885.9104439025548
 21
586.5446126304566
 31
0.0
  0
LINE
  5
1FD0
330
1FCD
100
AcDbEntity
  8
0
 62
     0
370
    -2
100
AcDbLine
 10
856.3467239025595
 20
586.7446126304566
 30
0.0
 11
885.7104439025548
 21
586.7446126304566
 31
0.0
  0
SOLID
  5
1FD1
330
1FCD
100
AcDbEntity
  8
0
 62
     0
100
AcDbTrace
 10
856.3467239025595
 20
586.7779459637898
 30
0.0
 11
856.3467239025595
 21
586.7112792971234
 31
0.0
 12
856.1467239025592
 22
586.7446126304566
 32
0.0
 13
856.1467239025592
 23
586.7446126304566
 33
0.0
  0
SOLID
  5
1FD2
330
1FCD
100
AcDbEntity
  8
0
 62
     0
100
AcDbTrace
 10
885.7104439025548
 20
586.7779459637898
 30
0.0
 11
885.7104439025548
 21
586.7112792971234
 31
0.0
 12
885.9104439025548
 22
586.7446126304566
 32
0.0
 13
885.9104439025548
 23
586.7446126304566
 33
0.0
  0
MTEXT
  5
1FD3
330
1FCD
100
AcDbEntity
  8
0
 62
     0
100
AcDbMText
 10
871.0285839025571
 20
586.9914626304566
 30
0.0
 40
0.3937
 41
0.0
 71
     5
 72
     1
  1
\A1;29.7637
  7
\U+C2A4\U+D0C0\U+C77C2
 73
     1
 44
1.0
  0
POINT
  5
1FD4
330
1FCD
100
AcDbEntity
  8
Defpoints
 62
     0
100
AcDbPoint
 10
856.1467239025592
 20
592.9192883899816
 30
0.0
  0
POINT
  5
1FD5
330
1FCD
100
AcDbEntity
  8
Defpoints
 62
     0
100
AcDbPoint
 10
885.9104439025548
 20
592.9192883899767
 30
0.0
  0
POINT
  5
1FD6
330
1FCD
100
AcDbEntity
  8
Defpoints
 62
     0
100
AcDbPoint
 10
885.9104439025548
 20
586.7446126304566
 30
0.0
  0
ENDBLK
  5
1FD8
330
1FCD
100
AcDbEntity
  8
0
100
AcDbBlockEnd
  0
BLOCK
  5
1FE4
330
1FDA
100
AcDbEntity
  8
0
100
AcDbBlockBegin
  2
*D4
 70
     1
 10
0.0
 20
0.0
 30
0.0
  3
*D4
  1

  0
LINE
  5
20B5
330
1FDA
100
AcDbEntity
  8
0
 62
     0
370
    -2
100
AcDbLine
 10
881.4667003445823
 20
588.5492183899832
 30
0.0
 11
887.0238476784271
 21
588.5492183899832
 31
0.0
  0
LINE
  5
20B6
330
1FDA
100
AcDbEntity
  8
0
 62
     0
370
    -2
100
AcDbLine
 10
881.4667003445817
 20
604.2972183899829
 30
0.0
 11
887.0238476784271
 21
604.2972183899829
 31
0.0
  0
LINE
  5
20B7
330
1FDA
100
AcDbEntity
  8
0
 62
     0
370
    -2
100
AcDbLine
 10
886.823847678427
 20
588.7492183899832
 30
0.0
 11
886.823847678427
 21
604.0972183899829
 31
0.0
  0
SOLID
  5
20B8
330
1FDA
100
AcDbEntity
  8
0
 62
     0
100
AcDbTrace
 10
886.7905143450936
 20
588.7492183899832
 30
0.0
 11
886.8571810117602
 21
588.7492183899832
 31
0.0
 12
886.823847678427
 22
588.5492183899832
 32
0.0
 13
886.823847678427
 23
588.5492183899832
 33
0.0
  0
SOLID
  5
20B9
330
1FDA
100
AcDbEntity
  8
0
 62
     0
100
AcDbTrace
 10
886.7905143450936
 20
604.0972183899829
 30
0.0
 11
886.8571810117602
 21
604.0972183899829
 31
0.0
 12
886.823847678427
 22
604.2972183899829
 32
0.0
 13
886.823847678427
 23
604.2972183899829
 33
0.0
  0
MTEXT
  5
20BA
330
1FDA
100
AcDbEntity
  8
0
 62
     0
100
AcDbMText
 10
886.5769976784267
 20
596.4232183899831
 30
0.0
 40
0.3937
 41
0.0
 71
     5
 72
     1
  1
\A1;15.748
  7
\U+C2A4\U+D0C0\U+C77C2
 11
0.0000000000000001
 21
1.0
 31
0.0
 73
     1
 44
1.0
  0
POINT
  5
20BB
330
1FDA
100
AcDbEntity
  8
Defpoints
 62
     0
100
AcDbPoint
 10
881.3667003445825
 20
588.5492183899832
 30
0.0
  0
POINT
  5
20BC
330
1FDA
100
AcDbEntity
  8
Defpoints
 62
     0
100
AcDbPoint
 10
881.3667003445818
 20
604.2972183899829
 30
0.0
  0
POINT
  5
20BD
330
1FDA
100
AcDbEntity
  8
Defpoints
 62
     0
100
AcDbPoint
 10
886.823847678427
 20
604.2972183899829
 30
0.0
  0
ENDBLK
  5
1FE5
330
1FDA
100
AcDbEntity
  8
0
100
AcDbBlockEnd
  0
BLOCK
  5
1FF1
330
1FE7
100
AcDbEntity
  8
0
100
AcDbBlockBegin
  2
*D5
 70
     1
 10
0.0
 20
0.0
 30
0.0
  3
*D5
  1

  0
LINE
  5
1FE8
330
1FE7
100
AcDbEntity
  8
0
 62
     0
370
    -2
100
AcDbLine
 10
881.4041539025556
 20
588.3129983899832
 30
0.0
 11
887.6930094659156
 21
588.3129983899832
 31
0.0
  0
LINE
  5
1FE9
330
1FE7
100
AcDbEntity
  8
0
 62
     0
370
    -2
100
AcDbLine
 10
881.404153902555
 20
604.5334383899829
 30
0.0
 11
887.6930094659156
 21
604.5334383899829
 31
0.0
  0
LINE
  5
1FEA
330
1FE7
100
AcDbEntity
  8
0
 62
     0
370
    -2
100
AcDbLine
 10
887.4930094659156
 20
588.5129983899831
 30
0.0
 11
887.4930094659156
 21
604.333438389983
 31
0.0
  0
SOLID
  5
1FEB
330
1FE7
100
AcDbEntity
  8
0
 62
     0
100
AcDbTrace
 10
887.4596761325824
 20
588.5129983899831
 30
0.0
 11
887.5263427992491
 21
588.5129983899831
 31
0.0
 12
887.4930094659156
 22
588.3129983899832
 32
0.0
 13
887.4930094659156
 23
588.3129983899832
 33
0.0
  0
SOLID
  5
1FEC
330
1FE7
100
AcDbEntity
  8
0
 62
     0
100
AcDbTrace
 10
887.4596761325824
 20
604.333438389983
 30
0.0
 11
887.5263427992491
 21
604.333438389983
 31
0.0
 12
887.4930094659156
 22
604.5334383899829
 32
0.0
 13
887.4930094659156
 23
604.5334383899829
 33
0.0
  0
MTEXT
  5
1FED
330
1FE7
100
AcDbEntity
  8
0
 62
     0
100
AcDbMText
 10
887.2461594659156
 20
596.4232183899834
 30
0.0
 40
0.3937
 41
0.0
 71
     5
 72
     1
  1
\A1;16.2204
  7
\U+C2A4\U+D0C0\U+C77C2
 11
0.0000000000000001
 21
1.0
 31
0.0
 73
     1
 44
1.0
  0
POINT
  5
1FEE
330
1FE7
100
AcDbEntity
  8
Defpoints
 62
     0
100
AcDbPoint
 10
881.3041539025554
 20
588.3129983899832
 30
0.0
  0
POINT
  5
1FEF
330
1FE7
100
AcDbEntity
  8
Defpoints
 62
     0
100
AcDbPoint
 10
881.3041539025547
 20
604.5334383899829
 30
0.0
  0
POINT
  5
1FF0
330
1FE7
100
AcDbEntity
  8
Defpoints
 62
     0
100
AcDbPoint
 10
887.4930094659156
 20
604.5334383899829
 30
0.0
  0
ENDBLK
  5
1FF2
330
1FE7
100
AcDbEntity
  8
0
100
AcDbBlockEnd
  0
BLOCK
  5
1FFA
330
1FF4
100
AcDbEntity
  8
0
100
AcDbBlockBegin
  2
*D6
 70
     1
 10
0.0
 20
0.0
 30
0.0
  3
*D6
  1

  0
LINE
  5
1FF5
330
1FF4
100
AcDbEntity
  8
0
 62
     0
370
    -2
100
AcDbLine
 10
859.2343235937821
 20
603.6921565074947
 30
0.0
 11
857.35998053082
 21
605.5826979437836
 31
0.0
  0
MTEXT
  5
1FF6
330
1FF4
100
AcDbEntity
  8
0
 62
     0
100
AcDbMText
 10
858.5428565397423
 20
604.7402096767937
 30
0.0
 40
0.3937
 41
0.0
 71
     5
 72
     1
  1
\A1;R3.2283
  7
\U+C2A4\U+D0C0\U+C77C2
 11
0.7040579456698728
 21
-0.7101425273416023
 31
0.0
 73
     1
 44
1.0
  0
SOLID
  5
1FF7
330
1FF4
100
AcDbEntity
  8
0
 62
     0
100
AcDbTrace
 10
857.3836519483979
 20
605.6061665419727
 30
0.0
 11
857.3363091132419
 21
605.5592293455946
 31
0.0
 12
857.2191689416859
 22
605.7247264492517
 32
0.0
 13
857.2191689416859
 23
605.7247264492517
 33
0.0
  0
POINT
  5
1FF8
330
1FF4
100
AcDbEntity
  8
Defpoints
 62
     0
100
AcDbPoint
 10
857.2191689416859
 20
605.7247264492517
 30
0.0
  0
POINT
  5
1FF9
330
1FF4
100
AcDbEntity
  8
Defpoints
 62
     0
100
AcDbPoint
 10
859.4921073700103
 20
603.4321449225337
 30
0.0
  0
ENDBLK
  5
1FFB
330
1FF4
100
AcDbEntity
  8
0
100
AcDbBlockEnd
  0
BLOCK
  5
2003
330
1FFD
100
AcDbEntity
  8
0
100
AcDbBlockBegin
  2
*D7
 70
     1
 10
0.0
 20
0.0
 30
0.0
  3
*D7
  1

  0
LINE
  5
1FFE
330
1FFD
100
AcDbEntity
  8
0
 62
     0
370
    -2
100
AcDbLine
 10
860.4935551676843
 20
603.7793428552439
 30
0.0
 11
860.3912613985372
 21
606.5709025935571
 31
0.0
  0
MTEXT
  5
1FFF
330
1FFD
100
AcDbEntity
  8
0
 62
     0
100
AcDbMText
 10
860.6927546543566
 20
605.0842292873218
 30
0.0
 40
0.3937
 41
0.0
 71
     5
 72
     1
  1
\A1;R10.0787
  7
\U+C2A4\U+D0C0\U+C77C2
 11
0.0366193701230453
 21
-0.9993292859372187
 31
0.0
 73
     1
 44
1.0
  0
SOLID
  5
2000
330
1FFD
100
AcDbEntity
  8
0
 62
     0
100
AcDbTrace
 10
860.4245723747352
 20
606.5721232392277
 30
0.0
 11
860.3579504223393
 21
606.5696819478862
 31
0.0
 12
860.3839375245126
 22
606.7707684507445
 32
0.0
 13
860.3839375245126
 23
606.7707684507445
 33
0.0
  0
POINT
  5
2001
330
1FFD
100
AcDbEntity
  8
Defpoints
 62
     0
100
AcDbPoint
 10
860.3839375245126
 20
606.7707684507445
 30
0.0
  0
POINT
  5
2002
330
1FFD
100
AcDbEntity
  8
Defpoints
 62
     0
100
AcDbPoint
 10
860.7530139025589
 20
596.6988083899832
 30
0.0
  0
ENDBLK
  5
2004
330
1FFD
100
AcDbEntity
  8
0
100
AcDbBlockEnd
  0
BLOCK
  5
200C
330
2006
100
AcDbEntity
  8
0
100
AcDbBlockBegin
  2
*D8
 70
     1
 10
0.0
 20
0.0
 30
0.0
  3
*D8
  1

  0
LINE
  5
2007
330
2006
100
AcDbEntity
  8
0
 62
     0
370
    -2
100
AcDbLine
 10
859.1607528864891
 20
602.7110791038055
 30
0.0
 11
856.3754395600946
 21
602.9239158054982
 31
0.0
  0
MTEXT
  5
2008
330
2006
100
AcDbEntity
  8
0
 62
     0
100
AcDbMText
 10
857.8866134860817
 20
603.0560107266532
 30
0.0
 40
0.3937
 41
0.0
 71
     5
 72
     1
  1
\A1;R10.0787
  7
\U+C2A4\U+D0C0\U+C77C2
 11
0.9970931803376034
 21
-0.0761917956491628
 31
0.0
 73
     1
 44
1.0
  0
SOLID
  5
2009
330
2006
100
AcDbEntity
  8
0
 62
     0
100
AcDbTrace
 10
856.3779792866164
 20
602.957152244843
 30
0.0
 11
856.3728998335731
 21
602.8906793661536
 31
0.0
 12
856.1760209240272
 22
602.9391541646282
 32
0.0
 13
856.1760209240272
 23
602.9391541646282
 33
0.0
  0
POINT
  5
200A
330
2006
100
AcDbEntity
  8
Defpoints
 62
     0
100
AcDbPoint
 10
856.1760209240272
 20
602.9391541646282
 30
0.0
  0
POINT
  5
200B
330
2006
100
AcDbEntity
  8
Defpoints
 62
     0
100
AcDbPoint
 10
866.2254439025602
 20
602.1712383899831
 30
0.0
  0
ENDBLK
  5
200D
330
2006
100
AcDbEntity
  8
0
100
AcDbBlockEnd
  0
BLOCK
  5
201F
330
2019
100
AcDbEntity
  8
0
100
AcDbBlockBegin
  2
*D9
 70
     1
 10
0.0
 20
0.0
 30
0.0
  3
*D9
  1

  0
LINE
  5
201A
330
2019
100
AcDbEntity
  8
0
 62
     0
370
    -2
100
AcDbLine
 10
882.5537018878826
 20
601.1766267971552
 30
0.0
 11
884.6998716799546
 21
603.3359432121005
 31
0.0
  0
MTEXT
  5
201B
330
2019
100
AcDbEntity
  8
0
 62
     0
100
AcDbMText
 10
883.2464774346361
 20
602.223815497591
 30
0.0
 40
0.3937
 41
0.0
 71
     5
 72
     1
  1
\A1;R3.2283
  7
\U+C2A4\U+D0C0\U+C77C2
 11
0.7049443737659268
 21
0.709262595866838
 31
0.0
 73
     1
 44
1.0
  0
SOLID
  5
201C
330
2019
100
AcDbEntity
  8
0
 62
     0
100
AcDbTrace
 10
884.6762295934258
 20
603.3594413578927
 30
0.0
 11
884.7235137664837
 21
603.3124450663081
 31
0.0
 12
884.840860554708
 22
603.477795731274
 32
0.0
 13
884.840860554708
 23
603.477795731274
 33
0.0
  0
POINT
  5
201D
330
2019
100
AcDbEntity
  8
Defpoints
 62
     0
100
AcDbPoint
 10
884.840860554708
 20
603.477795731274
 30
0.0
  0
POINT
  5
201E
330
2019
100
AcDbEntity
  8
Defpoints
 62
     0
100
AcDbPoint
 10
882.5650604351041
 20
601.188054922533
 30
0.0
  0
ENDBLK
  5
2020
330
2019
100
AcDbEntity
  8
0
100
AcDbBlockEnd
  0
BLOCK
  5
2028
330
2022
100
AcDbEntity
  8
0
100
AcDbBlockBegin
  2
*D10
 70
     1
 10
0.0
 20
0.0
 30
0.0
  3
*D10
  1

  0
LINE
  5
2023
330
2022
100
AcDbEntity
  8
0
 62
     0
370
    -2
100
AcDbLine
 10
881.3795529836609
 20
601.2895027847472
 30
0.0
 11
881.4131260439662
 21
604.3328373359562
 31
0.0
  0
MTEXT
  5
2024
330
2022
100
AcDbEntity
  8
0
 62
     0
100
AcDbMText
 10
881.1470220819002
 20
602.5888635567569
 30
0.0
 40
0.3937
 41
0.0
 71
     5
 72
     1
  1
\A1;R10.0787
  7
\U+C2A4\U+D0C0\U+C77C2
 11
0.0110309980858785
 21
0.9999391566896605
 31
0.0
 73
     1
 44
1.0
  0
SOLID
  5
2025
330
2022
100
AcDbEntity
  8
0
 62
     0
100
AcDbTrace
 10
881.3797947387433
 20
604.3332050358924
 30
0.0
 11
881.4464573491891
 21
604.3324696360201
 31
0.0
 12
881.415332243583
 22
604.5328251672942
 32
0.0
 13
881.415332243583
 23
604.5328251672942
 33
0.0
  0
POINT
  5
2026
330
2022
100
AcDbEntity
  8
Defpoints
 62
     0
100
AcDbPoint
 10
881.415332243583
 20
604.5328251672942
 30
0.0
  0
POINT
  5
2027
330
2022
100
AcDbEntity
  8
Defpoints
 62
     0
100
AcDbPoint
 10
881.3041539025551
 20
594.4547183899827
 30
0.0
  0
ENDBLK
  5
2029
330
2022
100
AcDbEntity
  8
0
100
AcDbBlockEnd
  0
BLOCK
  5
2031
330
202B
100
AcDbEntity
  8
0
100
AcDbBlockBegin
  2
*D11
 70
     1
 10
0.0
 20
0.0
 30
0.0
  3
*D11
  1

  0
LINE
  5
202C
330
202B
100
AcDbEntity
  8
0
 62
     0
370
    -2
100
AcDbLine
 10
882.9148315286213
 20
600.1028569737273
 30
0.0
 11
885.7074057570329
 21
600.172131547626
 31
0.0
  0
MTEXT
  5
202D
330
202B
100
AcDbEntity
  8
0
 62
     0
100
AcDbMText
 10
884.2050277446224
 20
600.3817884354292
 30
0.0
 40
0.3937
 41
0.0
 71
     5
 72
     1
  1
\A1;R10.0787
  7
\U+C2A4\U+D0C0\U+C77C2
 11
0.9996924555487217
 21
0.024799078994332
 31
0.0
 73
     1
 44
1.0
  0
SOLID
  5
202E
330
202B
100
AcDbEntity
  8
0
 62
     0
100
AcDbTrace
 10
885.7065791210667
 20
600.2054546294772
 30
0.0
 11
885.7082323929995
 21
600.1388084657742
 31
0.0
 12
885.9073442481427
 22
600.1770913634247
 32
0.0
 13
885.9073442481427
 23
600.1770913634247
 33
0.0
  0
POINT
  5
202F
330
202B
100
AcDbEntity
  8
Defpoints
 62
     0
100
AcDbPoint
 10
885.9073442481427
 20
600.1770913634247
 30
0.0
  0
POINT
  5
2030
330
202B
100
AcDbEntity
  8
Defpoints
 62
     0
100
AcDbPoint
 10
875.8317239025544
 20
599.9271483899831
 30
0.0
  0
ENDBLK
  5
2032
330
202B
100
AcDbEntity
  8
0
100
AcDbBlockEnd
  0
ENDSEC
  0
SECTION
  2
ENTITIES
  0
POINT
  5
37C
330
2
100
AcDbEntity
  8
0
 60
     1
100
AcDbPoint
 10
170.4737662487822
 20
-90.83440570086338
 30
0.0
1001
GENIUS_GENOBJ-N-TIT_13
1002
{
1000
OWNER
1000
GEN
1002
}
1001
GENIUS_GENOENT_13
1002
{
1000
MYREF
1005
37C
1002
}
1002
{
1000
GRP
1005
0
1002
}
1001
GENIUS_GENOLIS_13
1002
{
1000
ENT
1005
0
1005
0
1002
}
1001
GENIUS_GENTITLE_13
1002
{
1000
SCALE
1000
1:1
1002
}
1002
{
1000
BORDER
1000
GEN_A1
1002
}
1002
{
1000
TITLE
1000
GENTITLE
1002
}
1002
{
1000
UNCHG
1002
{
1000
GEN-TITLE-SCA
1000
GEN-TITLE-SIZ
1002
}
1002
}
1002
{
1000
HRA
1005
0
1002
}
1002
{
1000
HTIT
1005
0
1002
}
1002
{
1000
GENIUSID
1005
37C
1002
}
1001
GENIUS_GENODEF_13
1002
{
1000
HIER
1070
     1
1002
}
1002
{
1000
MANEDIT
1070
     0
1002
}
1002
{
1000
NOSEL
1070
     0
1002
}
1002
{
1000
BEHIND
1070
     0
1002
}
1002
{
1000
REACTOR
1002
}
  0
TEXT
  5
384
330
2
100
AcDbEntity
  8
0
 60
     1
100
AcDbText
 10
830.9999999999996
 20
-52.92726755347096
 30
0.0
 40
3.5
  1
!GENTITLE-INSERT
100
AcDbText
  0
TEXT
  5
385
330
2
100
AcDbEntity
  8
0
 60
     1
100
AcDbText
 10
10.0
 20
-47.92726755347096
 30
0.0
 40
3.5
  1
!GENTITLE-LL
100
AcDbText
  0
TEXT
  5
386
330
2
100
AcDbEntity
  8
0
 60
     1
100
AcDbText
 10
831.0
 20
526.072732446529
 30
0.0
 40
3.5
  1
!GENTITLE-RU
100
AcDbText
  0
TEXT
  5
387
330
2
100
AcDbEntity
  8
0
 60
     1
100
AcDbText
 10
841.0
 20
536.0727324465289
 30
0.0
 40
3.5
  1
!GENTITLE-MAX
100
AcDbText
  0
TEXT
  5
3FA
330
2
100
AcDbEntity
  8
0
 60
     1
100
AcDbText
 10
684.8812705983662
 20
141.8068575944205
 30
0.0
 40
3.5
  1
!GENTITLE-INSERT
100
AcDbText
  0
TEXT
  5
3FB
330
2
100
AcDbEntity
  8
0
 60
     1
100
AcDbText
 10
-136.1187294016335
 20
146.8068575944205
 30
0.0
 40
3.5
  1
!GENTITLE-LL
100
AcDbText
  0
TEXT
  5
3FC
330
2
100
AcDbEntity
  8
0
 60
     1
100
AcDbText
 10
684.8812705983664
 20
720.8068575944203
 30
0.0
 40
3.5
  1
!GENTITLE-RU
100
AcDbText
  0
TEXT
  5
3FD
330
2
100
AcDbEntity
  8
0
 60
     1
100
AcDbText
 10
694.8812705983664
 20
730.8068575944203
 30
0.0
 40
3.5
  1
!GENTITLE-MAX
100
AcDbText
  0
LINE
  5
1D97
330
2
100
AcDbEntity
  8
\U+7C97\U+5B9E\U+7EBF
100
AcDbLine
 10
856.3204301548191
 20
597.5452634467392
 30
0.0
 11
856.3204301548166
 21
602.17123844674
 31
0.0
  0
LINE
  5
1DB7
330
2
100
AcDbEntity
  8
\U+7C97\U+5B9E\U+7EBF
100
AcDbLine
 10
860.6905001548167
 20
606.5413084467401
 30
0.0
 11
863.4104889025618
 21
606.5413083899835
 31
0.0
  0
ARC
  5
1DD0
330
2
100
AcDbEntity
  8
\U+6807\U+6CE8\U+7EBF
 48
3.0
100
AcDbCircle
 10
860.6905001548167
 20
596.6988084467401
 30
0.0
 40
9.842499999999999
100
AcDbArc
 50
90.0
 51
100.6065510418501
  0
ARC
  5
1DD1
330
2
100
AcDbEntity
  8
\U+6807\U+6CE8\U+7EBF
 48
3.0
100
AcDbCircle
 10
866.1629301548163
 20
602.17123844674
 30
0.0
 40
9.842499999999999
100
AcDbArc
 50
169.3934489590448
 51
180.0
  0
ARC
  5
1DD2
330
2
100
AcDbEntity
  8
\U+6807\U+6CE8\U+7EBF
 48
3.0
100
AcDbCircle
 10
859.4295936222666
 20
603.43214497929
 30
0.0
 40
2.992119999999999
100
AcDbArc
 50
100.6065510418501
 51
169.3934489590448
  0
LINE
  5
1DDF
330
2
100
AcDbEntity
  8
\U+7C97\U+5B9E\U+7EBF
100
AcDbLine
 10
856.3204301548191
 20
597.5452634467396
 30
0.0
 11
856.3204301548166
 21
592.9192884467386
 31
0.0
  0
ARC
  5
1DE1
330
2
100
AcDbEntity
  8
\U+6807\U+6CE8\U+7EBF
 48
3.0
100
AcDbCircle
 10
860.6905001548167
 20
598.3917184467387
 30
0.0
 40
9.842499999999999
100
AcDbArc
 50
259.3934489581499
 51
270.0
  0
ARC
  5
1DE2
330
2
100
AcDbEntity
  8
\U+6807\U+6CE8\U+7EBF
 48
3.0
100
AcDbCircle
 10
866.1629301548163
 20
592.9192884467386
 30
0.0
 40
9.842499999999999
100
AcDbArc
 50
180.0
 51
190.6065510409551
  0
ARC
  5
1DE3
330
2
100
AcDbEntity
  8
\U+6807\U+6CE8\U+7EBF
 48
3.0
100
AcDbCircle
 10
859.4295936222666
 20
591.6583819141887
 30
0.0
 40
2.992119999999999
100
AcDbArc
 50
190.6065510409551
 51
259.3934489581499
  0
LINE
  5
1DEE
330
2
100
AcDbEntity
  8
\U+7C97\U+5B9E\U+7EBF
100
AcDbLine
 10
866.0679639025595
 20
606.5413083899832
 30
0.0
 11
863.410488902557
 21
606.5413083899835
 31
0.0
  0
ARC
  5
1DEF
330
2
100
AcDbEntity
  8
\U+6807\U+6CE8\U+7EBF
 48
3.0
100
AcDbCircle
 10
866.0679639025595
 20
596.6988083899832
 30
0.0
 40
9.842499999999995
100
AcDbArc
 50
79.39344895814992
 51
90.0
  0
ARC
  5
1DF1
330
2
100
AcDbEntity
  8
\U+6807\U+6CE8\U+7EBF
 48
3.0
100
AcDbCircle
 10
867.3288704351096
 20
603.432144922533
 30
0.0
 40
2.992119999999999
100
AcDbArc
 50
27.8519650246604
 51
79.39344895814992
  0
LINE
  5
1DFF
330
2
100
AcDbEntity
  8
\U+7C97\U+5B9E\U+7EBF
100
AcDbLine
 10
885.7367703445817
 20
599.927148389983
 30
0.0
 11
885.7367703445842
 21
596.4232183899829
 31
0.0
  0
ARC
  5
1E01
330
2
100
AcDbEntity
  8
\U+6807\U+6CE8\U+7EBF
 48
3.0
100
AcDbCircle
 10
881.3667003445818
 20
594.4547183899827
 30
0.0
 40
9.842499999999995
100
AcDbArc
 50
79.39344895814992
 51
90.0
  0
ARC
  5
1E02
330
2
100
AcDbEntity
  8
\U+6807\U+6CE8\U+7EBF
 48
3.0
100
AcDbCircle
 10
875.8942703445818
 20
599.927148389983
 30
0.0
 40
9.842499999999995
100
AcDbArc
 50
0.0
 51
10.60655104177406
  0
ARC
  5
1E03
330
2
100
AcDbEntity
  8
\U+6807\U+6CE8\U+7EBF
 48
3.0
100
AcDbCircle
 10
882.6276068771321
 20
601.1880549225327
 30
0.0
 40
2.992119999999999
100
AcDbArc
 50
10.60655104177406
 51
79.39344895814992
  0
LINE
  5
1E09
330
2
100
AcDbEntity
  8
\U+7C97\U+5B9E\U+7EBF
100
AcDbLine
 10
885.7367703445817
 20
592.9192883899832
 30
0.0
 11
885.7367703445842
 21
596.4232183899831
 31
0.0
  0
ARC
  5
1E0B
330
2
100
AcDbEntity
  8
\U+6807\U+6CE8\U+7EBF
 48
3.0
100
AcDbCircle
 10
881.3667003445818
 20
598.3917183899832
 30
0.0
 40
9.842499999999995
100
AcDbArc
 50
270.0
 51
280.6065510418501
  0
ARC
  5
1E0C
330
2
100
AcDbEntity
  8
\U+6807\U+6CE8\U+7EBF
 48
3.0
100
AcDbCircle
 10
875.8942703445818
 20
592.9192883899832
 30
0.0
 40
9.842499999999995
100
AcDbArc
 50
349.393448958226
 51
0.0
  0
ARC
  5
1E0D
330
2
100
AcDbEntity
  8
\U+6807\U+6CE8\U+7EBF
 48
3.0
100
AcDbCircle
 10
882.6276068771321
 20
591.6583818574332
 30
0.0
 40
2.992119999999999
100
AcDbArc
 50
280.6065510418501
 51
349.393448958226
  0
LINE
  5
1F8B
330
2
100
AcDbEntity
  8
0
100
AcDbLine
 10
881.3667003445818
 20
604.2972183899827
 30
0.0
 11
870.8585337413467
 21
604.2972183899829
 31
0.0
  0
LINE
  5
1F8C
330
2
100
AcDbEntity
  8
0
100
AcDbLine
 10
860.6905000000001
 20
588.5492183899819
 30
0.0
 11
881.3667
 21
588.5492183899832
 31
0.0
  0
ARC
  5
1FA3
330
2
100
AcDbEntity
  8
0
 48
3.0
100
AcDbCircle
 10
870.8585337413467
 20
605.297218389983
 30
0.0
 40
1.0
100
AcDbArc
 50
207.8519650246625
 51
270.0
  0
MTEXT
  5
2129
330
2
100
AcDbEntity
  8
0
100
AcDbMText
 10
863.7867392271216
 20
594.5979695911717
 30
0.0
 40
0.3937
 41
14.93397349915023
 71
     1
 72
     5
  3
{\fTimes New Roman|b0|i0|c0|p18;\H1.27x;Model : CLA-3221DR   \H0.58x;IMPORTANT ! \PThis template is provided as a guide for Undermount cutout only. \PBefore beginning to cut countertop, compare physical dimension of the template and the cutout line w
  1
ith the actual sink unit for an accurate cut.\PHamatUSA is not responsible for any countertop, installation or labor charges due to failure to follow these instructions.\P\Lwww.Hamatusa.com }
  7
\U+C2A4\U+D0C0\U+C77C2
 73
     1
 44
1.0
  0
VIEWPORT
  5
74
330
C
100
AcDbEntity
 67
     1
  8
0
100
AcDbViewport
 10
490.633788896909
 20
297.0009369707932
 30
0.0
 40
1115.370256166983
 41
599.3755656108596
 68
     1
 69
     1
 12
490.633788896909
 22
297.0009369707932
 13
0.0
 23
0.0
 14
10.0
 24
10.0
 15
10.0
 25
10.0
 16
0.0
 26
0.0
 36
1.0
 17
0.0
 27
0.0
 37
0.0
 42
50.0
 43
0.0
 44
0.0
 45
599.3755656108596
 50
0.0
 51
0.0
 72
  1000
 90
    32800
  1

281
     0
 71
     1
 74
     0
110
0.0
120
0.0
130
0.0
111
1.0
121
0.0
131
0.0
112
0.0
122
1.0
132
0.0
 79
     0
146
0.0
170
     0
  0
ENDSEC
  0
SECTION
  2
OBJECTS
  0
DICTIONARY
  5
7
330
0
100
AcDbDictionary
281
     1
  3
ACAD_COLOR
350
5A3
  3
ACAD_GROUP
350
20
  3
ACAD_LAYOUT
350
B
  3
ACAD_MATERIAL
350
5A2
  3
ACAD_MLINESTYLE
350
21
  3
ACAD_PLOTSETTINGS
350
22
  3
ACAD_PLOTSTYLENAME
350
6
  3
ACAD_TABLESTYLE
350
5C3
  3
ACAD_VISUALSTYLE
350
210E
  3
AcDbVariableDictionary
350
81
  0
DICTIONARY
  5
1CFD
330
10
100
AcDbDictionary
280
     1
281
     1
  3
ACAD_LAYERSTATES
360
1CFE
  0
DICTIONARY
  5
95E
330
2
100
AcDbDictionary
280
     1
281
     1
  3
ACAD_SORTENTS
360
95F
  0
DICTIONARY
  5
5A3
102
{ACAD_REACTORS
330
7
102
}
330
7
100
AcDbDictionary
281
     1
  0
DICTIONARY
  5
20
102
{ACAD_REACTORS
330
7
102
}
330
7
100
AcDbDictionary
281
     1
  0
DICTIONARY
  5
B
102
{ACAD_REACTORS
330
7
102
}
330
7
100
AcDbDictionary
281
     1
  3
DIN A1 Title Block
350
F
  3
Model
350
A
  0
DICTIONARY
  5
5A2
102
{ACAD_REACTORS
330
7
102
}
330
7
100
AcDbDictionary
281
     1
  3
ByBlock
350
210C
  3
ByLayer
350
210B
  3
Global
350
210D
  0
DICTIONARY
  5
21
102
{ACAD_REACTORS
330
7
102
}
330
7
100
AcDbDictionary
281
     1
  3
Standard
350
23
  0
DICTIONARY
  5
22
102
{ACAD_REACTORS
330
7
102
}
330
7
100
AcDbDictionary
281
     1
  0
ACDBDICTIONARYWDFLT
  5
6
102
{ACAD_REACTORS
330
7
102
}
330
7
100
AcDbDictionary
281
     1
  3
Normal
350
5
100
AcDbDictionaryWithDefault
340
5
  0
DICTIONARY
  5
5C3
102
{ACAD_REACTORS
330
7
102
}
330
7
100
AcDbDictionary
281
     1
  3
Standard
350
5C4
  0
DICTIONARY
  5
210E
102
{ACAD_REACTORS
330
7
102
}
330
7
100
AcDbDictionary
281
     1
  3
2dWireframe
350
2114
  3
3D Hidden
350
2116
  3
3dWireframe
350
2115
  3
Basic
350
2113
  3
Brighten
350
211A
  3
ColorChange
350
211E
  3
Conceptual
350
2117
  3
Dim
350
2119
  3
Facepattern
350
211D
  3
Flat
350
210F
  3
FlatWithEdges
350
2110
  3
Gouraud
350
2111
  3
GouraudWithEdges
350
2112
  3
Linepattern
350
211C
  3
Realistic
350
2118
  3
Thicken
350
211B
  0
DICTIONARY
  5
81
102
{ACAD_REACTORS
330
7
102
}
330
7
100
AcDbDictionary
281
     1
  3
CTABLESTYLE
350
5EE
  3
DIMASSOC
350
82
  3
PROJECTNAME
350
2055
  0
DICTIONARY
  5
1CFE
102
{ACAD_REACTORS
330
1CFD
102
}
330
1CFD
100
AcDbDictionary
281
     1
  0
SORTENTSTABLE
  5
95F
102
{ACAD_REACTORS
330
95E
102
}
330
95E
100
AcDbSortentsTable
330
2
331
1DD0
  5
1DD2
331
1DF1
  5
1F8D
331
1DD1
  5
1DE1
331
1DD2
  5
1DE3
331
3FB
  5
3FB
331
1F8B
  5
1FA1
331
3FA
  5
3FA
331
1F8C
  5
1FA3
331
37C
  5
37C
331
3FD
  5
3FD
331
1DDF
  5
1DEF
331
1D97
  5
1D97
331
3FC
  5
3FC
331
1E01
  5
1F93
331
1DE1
  5
1DFF
331
1E02
  5
1F95
331
1DE2
  5
1E02
331
1E03
  5
1F97
331
1DE3
  5
1E09
331
384
  5
384
331
1FA3
  5
1F8E
331
386
  5
386
331
385
  5
385
331
1E09
  5
1F99
331
1E0B
  5
1F9B
331
1DB7
  5
1DD0
331
387
  5
387
331
1E0D
  5
1F9F
331
1E0C
  5
1F9D
331
1DFF
  5
1F91
331
1DEF
  5
1F8B
331
1DEE
  5
1E0C
  0
LAYOUT
  5
F
102
{ACAD_REACTORS
330
B
102
}
330
B
100
AcDbPlotSettings
  1

  2
none_device
  4
ISO_A1_(841.00_x_594.00_MM)
  6

 40
7.549999999999998
 41
20.05
 42
7.549999999999998
 43
20.05
 44
841.0
 45
594.0
 46
-7.57
 47
-20.06
 48
0.0
 49
0.0
140
0.0
141
0.0
142
1.0
143
1.0
 70
   688
 72
     1
 73
     0
 74
     5
  7

 75
    16
147
1.0
 76
     0
 77
     2
 78
   300
148
0.0128164049386896
149
0.0090630292066862
100
AcDbLayout
  1
DIN A1 Title Block
 70
     1
 71
     1
 10
0.0071835950613108
 20
0.0009369707933118
 11
841.0071835950612
 21
594.0009369707931
 12
0.0
 22
0.0
 32
0.0
 14
1.000000000000000E+20
 24
1.000000000000000E+20
 34
1.000000000000000E+20
 15
-1.000000000000000E+20
 25
-1.000000000000000E+20
 35
-1.000000000000000E+20
146
0.0
 13
0.0
 23
0.0
 33
0.0
 16
1.0
 26
0.0
 36
0.0
 17
0.0
 27
1.0
 37
0.0
 76
     0
330
C
331
74
  0
LAYOUT
  5
A
102
{ACAD_REACTORS
330
B
102
}
330
B
100
AcDbPlotSettings
  1

  2
none_device
  4
ISO_A4_(297.00_x_210.00_MM)
  6

 40
7.5
 41
20.0
 42
7.5
 43
20.0
 44
297.0
 45
210.0
 46
0.0
 47
0.0
 48
969.1120635225747
 49
1410.089773188028
140
997.7071895623687
141
1431.243016253039
142
1.0
143
20.0
 70
 11952
 72
     1
 73
     0
 74
     4
  7

 75
    22
147
0.05
 76
     0
 77
     2
 78
   300
148
-969.1120635225747
149
-1410.089773188028
100
AcDbLayout
  1
Model
 70
     1
 71
     0
 10
0.0
 20
0.0
 11
12.0
 21
9.0
 12
0.0
 22
0.0
 32
0.0
 14
0.0
 24
0.0
 34
0.0
 15
0.0
 25
0.0
 35
0.0
146
0.0
 13
0.0
 23
0.0
 33
0.0
 16
1.0
 26
0.0
 36
0.0
 17
0.0
 27
1.0
 37
0.0
 76
     0
330
2
331
20FE
1001
ACAD_PSEXT
1000
\U+C5C6\U+C74C
1000
\U+C5C6\U+C74C
1000
\U+C801\U+C6A9 \U+AC00\U+B2A5\U+D558\U+C9C0 \U+C54A\U+C74C
1000
\U+BC30\U+CE58\U+AC00 \U+C0C8\U+B85C\U+C6B4 \U+D50C\U+B85C\U+D130 \U+AD6C\U+C131\U+C744 \U+C120\U+D0DD\U+D560 \U+B54C\U+AE4C\U+C9C0 \U+D50C\U+B86F\U+B418\U+C9C0 \U+C54A\U+C2B5\U+B2C8\U+B2E4.
1070
     0
  0
MATERIAL
  5
210C
102
{ACAD_XDICTIONARY
360
212E
102
}
102
{ACAD_REACTORS
330
5A2
102
}
330
5A2
100
AcDbMaterial
  1
ByBlock
  0
MATERIAL
  5
210B
102
{ACAD_XDICTIONARY
360
212C
102
}
102
{ACAD_REACTORS
330
5A2
102
}
330
5A2
100
AcDbMaterial
  1
ByLayer
  0
MATERIAL
  5
210D
102
{ACAD_XDICTIONARY
360
2130
102
}
102
{ACAD_REACTORS
330
5A2
102
}
330
5A2
100
AcDbMaterial
  1
Global
  0
MLINESTYLE
  5
23
102
{ACAD_REACTORS
330
21
102
}
330
21
100
AcDbMlineStyle
  2
STANDARD
 70
     0
  3

 62
   256
 51
90.0
 52
90.0
 71
     2
 49
0.5
 62
   256
  6
BYLAYER
 49
-0.5
 62
   256
  6
BYLAYER
  0
ACDBPLACEHOLDER
  5
5
102
{ACAD_REACTORS
330
6
102
}
330
6
  0
TABLESTYLE
  5
5C4
102
{ACAD_XDICTIONARY
360
212A
102
}
102
{ACAD_REACTORS
330
5C3
102
}
330
5C3
100
AcDbTableStyle
  3
Standard
 70
     0
 71
     0
 40
1.5
 41
1.5
280
     0
281
     0
  7
Standard
140
4.5
170
     2
 62
     0
 63
     7
283
     0
274
    -2
284
     1
 64
     0
275
    -2
285
     1
 65
     0
276
    -2
286
     1
 66
     0
277
    -2
287
     1
 67
     0
278
    -2
288
     1
 68
     0
279
    -2
289
     1
 69
     0
  7
Standard
140
6.0
170
     5
 62
     0
 63
     7
283
     0
274
    -2
284
     1
 64
     0
275
    -2
285
     1
 65
     0
276
    -2
286
     1
 66
     0
277
    -2
287
     1
 67
     0
278
    -2
288
     1
 68
     0
279
    -2
289
     1
 69
     0
  7
Standard
140
4.5
170
     5
 62
     0
 63
     7
283
     0
274
    -2
284
     1
 64
     0
275
    -2
285
     1
 65
     0
276
    -2
286
     1
 66
     0
277
    -2
287
     1
 67
     0
278
    -2
288
     1
 68
     0
279
    -2
289
     1
 69
     0
  0
VISUALSTYLE
  5
2114
102
{ACAD_REACTORS
330
210E
102
}
330
210E
100
AcDbVisualStyle
  2
2dWireframe
 70
     4
 71
     0
 72
     2
 73
     0
 90
        0
 40
-0.6
 41
-30.0
 62
     5
 63
     7
421
 16777215
 74
     1
 91
        4
 64
     7
 65
   257
 75
     1
175
     1
 42
1.0
 92
        0
 66
   257
 43
1.0
 76
     1
 77
     6
 78
     2
 67
     7
 79
     5
170
     0
171
     0
290
     0
174
     0
 93
        1
 44
0.0
173
     0
291
     0
 45
0.0
1001
ACAD
1000
AcDbSavedByObjectVersion
1070
     0
  0
VISUALSTYLE
  5
2116
102
{ACAD_REACTORS
330
210E
102
}
330
210E
100
AcDbVisualStyle
  2
3D Hidden
 70
     6
 71
     1
 72
     2
 73
     2
 90
        0
 40
-0.6
 41
-30.0
 62
     5
 63
     7
421
 16777215
 74
     2
 91
        2
 64
     7
 65
   257
 75
     2
175
     1
 42
40.0
 92
        0
 66
   257
 43
1.0
 76
     1
 77
     6
 78
     2
 67
     7
 79
     3
170
     0
171
     0
290
     0
174
     0
 93
        1
 44
0.0
173
     0
291
     0
 45
0.0
1001
ACAD
1000
AcDbSavedByObjectVersion
1070
     0
  0
VISUALSTYLE
  5
2115
102
{ACAD_REACTORS
330
210E
102
}
330
210E
100
AcDbVisualStyle
  2
3dWireframe
 70
     5
 71
     0
 72
     2
 73
     0
 90
        0
 40
-0.6
 41
-30.0
 62
     5
 63
     7
421
 16777215
 74
     1
 91
        4
 64
     7
 65
   257
 75
     1
175
     1
 42
1.0
 92
        0
 66
   257
 43
1.0
 76
     1
 77
     6
 78
     2
 67
     7
 79
     5
170
     0
171
     0
290
     0
174
     0
 93
        1
 44
0.0
173
     0
291
     0
 45
0.0
1001
ACAD
1000
AcDbSavedByObjectVersion
1070
     0
  0
VISUALSTYLE
  5
2113
102
{ACAD_REACTORS
330
210E
102
}
330
210E
100
AcDbVisualStyle
  2
Basic
 70
     7
 71
     1
 72
     0
 73
     1
 90
        0
 40
-0.6
 41
-30.0
 62
     5
 63
     7
421
 16777215
 74
     0
 91
        4
 64
     7
 65
   257
 75
     1
175
     1
 42
1.0
 92
        8
 66
     7
 43
1.0
 76
     1
 77
     6
 78
     2
 67
     7
 79
     5
170
     0
171
     0
290
     0
174
     0
 93
        1
 44
0.0
173
     0
291
     1
 45
0.0
1001
ACAD
1000
AcDbSavedByObjectVersion
1070
     0
  0
VISUALSTYLE
  5
211A
102
{ACAD_REACTORS
330
210E
102
}
330
210E
100
AcDbVisualStyle
  2
Brighten
 70
    12
 71
     2
 72
     2
 73
     0
 90
        0
 40
-0.6
 41
-30.0
 62
     5
 63
     7
421
 16777215
 74
     1
 91
        4
 64
     7
 65
   257
 75
     1
175
     1
 42
1.0
 92
        8
 66
     7
 43
1.0
 76
     1
 77
     6
 78
     2
 67
     7
 79
     5
170
     0
171
     0
290
     0
174
     0
 93
        1
 44
50.0
173
     0
291
     1
 45
0.0
1001
ACAD
1000
AcDbSavedByObjectVersion
1070
     0
  0
VISUALSTYLE
  5
211E
102
{ACAD_REACTORS
330
210E
102
}
330
210E
100
AcDbVisualStyle
  2
ColorChange
 70
    16
 71
     2
 72
     2
 73
     3
 90
        0
 40
-0.6
 41
-30.0
 62
     5
 63
     8
421
  8421504
 74
     1
 91
        4
 64
     7
 65
   257
 75
     1
175
     1
 42
1.0
 92
        8
 66
     8
424
  8421504
 43
1.0
 76
     1
 77
     6
 78
     2
 67
     7
 79
     5
170
     0
171
     0
290
     0
174
     0
 93
        1
 44
0.0
173
     0
291
     1
 45
0.0
1001
ACAD
1000
AcDbSavedByObjectVersion
1070
     0
  0
VISUALSTYLE
  5
2117
102
{ACAD_REACTORS
330
210E
102
}
330
210E
100
AcDbVisualStyle
  2
Conceptual
 70
     9
 71
     3
 72
     2
 73
     0
 90
        0
 40
-0.6
 41
-30.0
 62
     5
 63
     7
421
 16777215
 74
     2
 91
        2
 64
     7
 65
   257
 75
     1
175
     1
 42
40.0
 92
        8
 66
     7
 43
1.0
 76
     1
 77
     6
 78
     2
 67
     7
 79
     3
170
     0
171
     0
290
     0
174
     0
 93
        1
 44
0.0
173
     0
291
     0
 45
0.0
1001
ACAD
1000
AcDbSavedByObjectVersion
1070
     0
  0
VISUALSTYLE
  5
2119
102
{ACAD_REACTORS
330
210E
102
}
330
210E
100
AcDbVisualStyle
  2
Dim
 70
    11
 71
     2
 72
     2
 73
     0
 90
        0
 40
-0.6
 41
-30.0
 62
     5
 63
     7
421
 16777215
 74
     1
 91
        4
 64
     7
 65
   257
 75
     1
175
     1
 42
1.0
 92
        8
 66
     7
 43
1.0
 76
     1
 77
     6
 78
     2
 67
     7
 79
     5
170
     0
171
     0
290
     0
174
     0
 93
        1
 44
-50.0
173
     0
291
     1
 45
0.0
1001
ACAD
1000
AcDbSavedByObjectVersion
1070
     0
  0
VISUALSTYLE
  5
211D
102
{ACAD_REACTORS
330
210E
102
}
330
210E
100
AcDbVisualStyle
  2
Facepattern
 70
    15
 71
     2
 72
     2
 73
     0
 90
        0
 40
-0.6
 41
-30.0
 62
     5
 63
     7
421
 16777215
 74
     1
 91
        4
 64
     7
 65
   257
 75
     1
175
     1
 42
1.0
 92
        8
 66
     7
 43
1.0
 76
     1
 77
     6
 78
     2
 67
     7
 79
     5
170
     0
171
     0
290
     0
174
     0
 93
        1
 44
0.0
173
     0
291
     1
 45
0.0
1001
ACAD
1000
AcDbSavedByObjectVersion
1070
     0
  0
VISUALSTYLE
  5
210F
102
{ACAD_REACTORS
330
210E
102
}
330
210E
100
AcDbVisualStyle
  2
Flat
 70
     0
 71
     2
 72
     1
 73
     1
 90
        2
 40
-0.6
 41
30.0
 62
     5
 63
     7
421
 16777215
 74
     0
 91
        4
 64
     7
 65
   257
 75
     1
175
     1
 42
1.0
 92
        8
 66
     7
 43
1.0
 76
     1
 77
     6
 78
     2
 67
     7
 79
     5
170
     0
171
     0
290
     0
174
     0
 93
       13
 44
0.0
173
     0
291
     1
 45
0.0
1001
ACAD
1000
AcDbSavedByObjectVersion
1070
     0
  0
VISUALSTYLE
  5
2110
102
{ACAD_REACTORS
330
210E
102
}
330
210E
100
AcDbVisualStyle
  2
FlatWithEdges
 70
     1
 71
     2
 72
     1
 73
     1
 90
        2
 40
-0.6
 41
30.0
 62
     5
 63
     7
421
 16777215
 74
     1
 91
        4
 64
     7
 65
   257
 75
     1
175
     1
 42
1.0
 92
        0
 66
   257
 43
1.0
 76
     1
 77
     6
 78
     2
 67
     7
 79
     5
170
     0
171
     0
290
     0
174
     0
 93
       13
 44
0.0
173
     0
291
     1
 45
0.0
1001
ACAD
1000
AcDbSavedByObjectVersion
1070
     0
  0
VISUALSTYLE
  5
2111
102
{ACAD_REACTORS
330
210E
102
}
330
210E
100
AcDbVisualStyle
  2
Gouraud
 70
     2
 71
     2
 72
     2
 73
     1
 90
        2
 40
-0.6
 41
30.0
 62
     5
 63
     7
421
 16777215
 74
     0
 91
        4
 64
     7
 65
   257
 75
     1
175
     1
 42
1.0
 92
        0
 66
     7
 43
1.0
 76
     1
 77
     6
 78
     2
 67
     7
 79
     5
170
     0
171
     0
290
     0
174
     0
 93
       13
 44
0.0
173
     0
291
     1
 45
0.0
1001
ACAD
1000
AcDbSavedByObjectVersion
1070
     0
  0
VISUALSTYLE
  5
2112
102
{ACAD_REACTORS
330
210E
102
}
330
210E
100
AcDbVisualStyle
  2
GouraudWithEdges
 70
     3
 71
     2
 72
     2
 73
     1
 90
        2
 40
-0.6
 41
30.0
 62
     5
 63
     7
421
 16777215
 74
     1
 91
        4
 64
     7
 65
   257
 75
     1
175
     1
 42
1.0
 92
        0
 66
   257
 43
1.0
 76
     1
 77
     6
 78
     2
 67
     7
 79
     5
170
     0
171
     0
290
     0
174
     0
 93
       13
 44
0.0
173
     0
291
     1
 45
0.0
1001
ACAD
1000
AcDbSavedByObjectVersion
1070
     0
  0
VISUALSTYLE
  5
211C
102
{ACAD_REACTORS
330
210E
102
}
330
210E
100
AcDbVisualStyle
  2
Linepattern
 70
    14
 71
     2
 72
     2
 73
     0
 90
        0
 40
-0.6
 41
-30.0
 62
     5
 63
     7
421
 16777215
 74
     1
 91
        4
 64
     7
 65
   257
 75
     7
175
     7
 42
1.0
 92
        8
 66
     7
 43
1.0
 76
     1
 77
     6
 78
     2
 67
     7
 79
     5
170
     0
171
     0
290
     0
174
     0
 93
        1
 44
0.0
173
     0
291
     1
 45
0.0
1001
ACAD
1000
AcDbSavedByObjectVersion
1070
     0
  0
VISUALSTYLE
  5
2118
102
{ACAD_REACTORS
330
210E
102
}
330
210E
100
AcDbVisualStyle
  2
Realistic
 70
     8
 71
     2
 72
     2
 73
     0
 90
        0
 40
-0.6
 41
-30.0
 62
     5
 63
     7
421
 16777215
 74
     1
 91
        0
 64
     7
 65
   257
 75
     1
175
     1
 42
1.0
 92
        8
 66
     8
424
  7895160
 43
1.0
 76
     1
 77
     6
 78
     2
 67
     7
 79
     5
170
     0
171
     0
290
     0
174
     0
 93
       13
 44
0.0
173
     0
291
     0
 45
0.0
1001
ACAD
1000
AcDbSavedByObjectVersion
1070
     0
  0
VISUALSTYLE
  5
211B
102
{ACAD_REACTORS
330
210E
102
}
330
210E
100
AcDbVisualStyle
  2
Thicken
 70
    13
 71
     2
 72
     2
 73
     0
 90
        0
 40
-0.6
 41
-30.0
 62
     5
 63
     7
421
 16777215
 74
     1
 91
        4
 64
     7
 65
   257
 75
     1
175
     1
 42
1.0
 92
       12
 66
     7
 43
1.0
 76
     1
 77
     6
 78
     2
 67
     7
 79
     5
170
     0
171
     0
290
     0
174
     0
 93
        1
 44
0.0
173
     0
291
     1
 45
0.0
1001
ACAD
1000
AcDbSavedByObjectVersion
1070
     0
  0
DICTIONARYVAR
  5
5EE
102
{ACAD_REACTORS
330
81
102
}
330
81
100
DictionaryVariables
280
     0
  1
STANDARD
  0
DICTIONARYVAR
  5
82
102
{ACAD_REACTORS
330
81
102
}
330
81
100
DictionaryVariables
280
     0
  1
1
  0
DICTIONARYVAR
  5
2055
102
{ACAD_REACTORS
330
81
102
}
330
81
100
DictionaryVariables
280
     0
  1

  0
DICTIONARY
  5
212E
330
210C
100
AcDbDictionary
280
     1
281
     1
  3
ACAD_XREC_ROUNDTRIP
360
212F
  0
DICTIONARY
  5
212C
330
210B
100
AcDbDictionary
280
     1
281
     1
  3
ACAD_XREC_ROUNDTRIP
360
212D
  0
DICTIONARY
  5
2130
330
210D
100
AcDbDictionary
280
     1
281
     1
  3
ACAD_XREC_ROUNDTRIP
360
2131
  0
DICTIONARY
  5
212A
330
5C4
100
AcDbDictionary
280
     1
281
     1
  3
ACAD_XREC_ROUNDTRIP
360
212B
  0
XRECORD
  5
212F
102
{ACAD_REACTORS
330
212E
102
}
330
212E
100
AcDbXrecord
280
     1
102
MATERIAL
148
0.0
149
0.0
149
0.0
 93
        0
 94
       63
282
     0
 72
     1
 77
     1
171
     1
175
     1
179
     1
273
     0
  0
XRECORD
  5
212D
102
{ACAD_REACTORS
330
212C
102
}
330
212C
100
AcDbXrecord
280
     1
102
MATERIAL
148
0.0
149
0.0
149
0.0
 93
        0
 94
       63
282
     0
 72
     1
 77
     1
171
     1
175
     1
179
     1
273
     0
  0
XRECORD
  5
2131
102
{ACAD_REACTORS
330
2130
102
}
330
2130
100
AcDbXrecord
280
     1
102
MATERIAL
148
0.0
149
0.0
149
0.0
 93
        0
 94
       63
282
     0
 72
     1
 77
     1
171
     1
175
     1
179
     1
273
     0
  0
XRECORD
  5
212B
102
{ACAD_REACTORS
330
212A
102
}
330
212A
100
AcDbXrecord
280
     1
102
ACAD_ROUNDTRIP_PRE2007_TABLESTYLE
 90
        4
 91
        0
  1

 92
        4
 93
        0
  2

 94
        4
 95
        0
  3

  0
ENDSEC
  0
EOF
