  0
SECTION
  2
HEADER
  9
$ACADVER
  1
AC1018
  9
$ACADMAINTVER
 70
   104
  9
$DWGCODEPAGE
  3
ANSI_1252
  9
$LASTSAVEDBY
  1
user
  9
$INSBASE
 10
0.0
 20
0.0
 30
0.0
  9
$EXTMIN
 10
-136.1187294016335
 20
-90.83440570086338
 30
0.0
  9
$EXTMAX
 10
918.0164533408857
 20
734.3068575944205
 30
0.0
  9
$LIMMIN
 10
0.0
 20
0.0
  9
$LIMMAX
 10
420.0
 20
297.0
  9
$ORTHOMODE
 70
     0
  9
$REGENMODE
 70
     1
  9
$FILLMODE
 70
     1
  9
$QTEXTMODE
 70
     0
  9
$MIRRTEXT
 70
     0
  9
$LTSCALE
 40
1.0
  9
$ATTMODE
 70
     1
  9
$TEXTSIZE
 40
0.3937
  9
$TRACEWID
 40
1.0
  9
$TEXTSTYLE
  7
\U+C2A4\U+D0C0\U+C77C2
  9
$CLAYER
  8
0
  9
$CELTYPE
  6
ByLayer
  9
$CECOLOR
 62
   256
  9
$CELTSCALE
 40
1.0
  9
$DISPSILH
 70
     0
  9
$DIMSCALE
 40
1.0
  9
$DIMASZ
 40
0.2
  9
$DIMEXO
 40
0.1
  9
$DIMDLI
 40
0.039
  9
$DIMRND
 40
0.0
  9
$DIMDLE
 40
0.0
  9
$DIMEXE
 40
0.2
  9
$DIMTP
 40
0.0
  9
$DIMTM
 40
0.0
  9
$DIMTXT
 40
2.5
  9
$DIMCEN
 40
0.039
  9
$DIMTSZ
 40
0.0
  9
$DIMTOL
 70
     0
  9
$DIMLIM
 70
     0
  9
$DIMTIH
 70
     0
  9
$DIMTOH
 70
     0
  9
$DIMSE1
 70
     0
  9
$DIMSE2
 70
     0
  9
$DIMTAD
 70
     1
  9
$DIMZIN
 70
     8
  9
$DIMBLK
  1

  9
$DIMASO
 70
     1
  9
$DIMSHO
 70
     1
  9
$DIMPOST
  1

  9
$DIMAPOST
  1

  9
$DIMALT
 70
     0
  9
$DIMALTD
 70
     2
  9
$DIMALTF
 40
0.0394
  9
$DIMLFAC
 40
1.0
  9
$DIMTOFL
 70
     1
  9
$DIMTVP
 40
1.0
  9
$DIMTIX
 70
     0
  9
$DIMSOXD
 70
     0
  9
$DIMSAH
 70
     0
  9
$DIMBLK1
  1

  9
$DIMBLK2
  1

  9
$DIMSTYLE
  2
DIN
  9
$DIMCLRD
 70
     0
  9
$DIMCLRE
 70
     0
  9
$DIMCLRT
 70
     0
  9
$DIMTFAC
 40
1.0
  9
$DIMGAP
 40
0.05
  9
$DIMJUST
 70
     0
  9
$DIMSD1
 70
     0
  9
$DIMSD2
 70
     0
  9
$DIMTOLJ
 70
     1
  9
$DIMTZIN
 70
     0
  9
$DIMALTZ
 70
     0
  9
$DIMALTTZ
 70
     0
  9
$DIMUPT
 70
     0
  9
$DIMDEC
 70
     4
  9
$DIMTDEC
 70
     4
  9
$DIMALTU
 70
     2
  9
$DIMALTTD
 70
     2
  9
$DIMTXSTY
  7
STANDARD
  9
$DIMAUNIT
 70
     0
  9
$DIMADEC
 70
     0
  9
$DIMALTRND
 40
0.0
  9
$DIMAZIN
 70
     0
  9
$DIMDSEP
 70
    46
  9
$DIMATFIT
 70
     3
  9
$DIMFRAC
 70
     0
  9
$DIMLDRBLK
  1

  9
$DIMLUNIT
 70
     2
  9
$DIMLWD
 70
    -2
  9
$DIMLWE
 70
    -2
  9
$DIMTMOVE
 70
     0
  9
$LUNITS
 70
     3
  9
$LUPREC
 70
     4
  9
$SKETCHINC
 40
1.0
  9
$FILLETRAD
 40
0.59
  9
$AUNITS
 70
     0
  9
$AUPREC
 70
     0
  9
$MENU
  1
.
  9
$ELEVATION
 40
0.0
  9
$PELEVATION
 40
0.0
  9
$THICKNESS
 40
0.0
  9
$LIMCHECK
 70
     0
  9
$CHAMFERA
 40
0.0
  9
$CHAMFERB
 40
0.0
  9
$CHAMFERC
 40
0.0
  9
$CHAMFERD
 40
0.0
  9
$SKPOLY
 70
     0
  9
$TDCREATE
 40
2454393.179354919
  9
$TDUCREATE
 40
2454393.387688252
  9
$TDUPDATE
 40
2458464.671904664
  9
$TDUUPDATE
 40
2458464.880237998
  9
$TDINDWG
 40
0.7918643171
  9
$TDUSRTIMER
 40
0.7918379051
  9
$USRTIMER
 70
     1
  9
$ANGBASE
 50
0.0
  9
$ANGDIR
 70
     0
  9
$PDMODE
 70
     0
  9
$PDSIZE
 40
0.0
  9
$PLINEWID
 40
0.0
  9
$SPLFRAME
 70
     0
  9
$SPLINETYPE
 70
     6
  9
$SPLINESEGS
 70
     8
  9
$HANDSEED
  5
2090
  9
$SURFTAB1
 70
     6
  9
$SURFTAB2
 70
     6
  9
$SURFTYPE
 70
     6
  9
$SURFU
 70
     6
  9
$SURFV
 70
     6
  9
$UCSBASE
  2

  9
$UCSNAME
  2

  9
$UCSORG
 10
0.0
 20
0.0
 30
0.0
  9
$UCSXDIR
 10
1.0
 20
0.0
 30
0.0
  9
$UCSYDIR
 10
0.0
 20
1.0
 30
0.0
  9
$UCSORTHOREF
  2

  9
$UCSORTHOVIEW
 70
     0
  9
$UCSORGTOP
 10
0.0
 20
0.0
 30
0.0
  9
$UCSORGBOTTOM
 10
0.0
 20
0.0
 30
0.0
  9
$UCSORGLEFT
 10
0.0
 20
0.0
 30
0.0
  9
$UCSORGRIGHT
 10
0.0
 20
0.0
 30
0.0
  9
$UCSORGFRONT
 10
0.0
 20
0.0
 30
0.0
  9
$UCSORGBACK
 10
0.0
 20
0.0
 30
0.0
  9
$PUCSBASE
  2

  9
$PUCSNAME
  2

  9
$PUCSORG
 10
0.0
 20
0.0
 30
0.0
  9
$PUCSXDIR
 10
1.0
 20
0.0
 30
0.0
  9
$PUCSYDIR
 10
0.0
 20
1.0
 30
0.0
  9
$PUCSORTHOREF
  2

  9
$PUCSORTHOVIEW
 70
     0
  9
$PUCSORGTOP
 10
0.0
 20
0.0
 30
0.0
  9
$PUCSORGBOTTOM
 10
0.0
 20
0.0
 30
0.0
  9
$PUCSORGLEFT
 10
0.0
 20
0.0
 30
0.0
  9
$PUCSORGRIGHT
 10
0.0
 20
0.0
 30
0.0
  9
$PUCSORGFRONT
 10
0.0
 20
0.0
 30
0.0
  9
$PUCSORGBACK
 10
0.0
 20
0.0
 30
0.0
  9
$USERI1
 70
     0
  9
$USERI2
 70
     0
  9
$USERI3
 70
     0
  9
$USERI4
 70
     0
  9
$USERI5
 70
     0
  9
$USERR1
 40
0.0
  9
$USERR2
 40
0.0
  9
$USERR3
 40
0.0
  9
$USERR4
 40
0.0
  9
$USERR5
 40
0.0
  9
$WORLDVIEW
 70
     1
  9
$SHADEDGE
 70
     3
  9
$SHADEDIF
 70
    70
  9
$TILEMODE
 70
     1
  9
$MAXACTVP
 70
    64
  9
$PINSBASE
 10
0.0
 20
0.0
 30
0.0
  9
$PLIMCHECK
 70
     0
  9
$PEXTMIN
 10
1.000000000000000E+20
 20
1.000000000000000E+20
 30
1.000000000000000E+20
  9
$PEXTMAX
 10
-1.000000000000000E+20
 20
-1.000000000000000E+20
 30
-1.000000000000000E+20
  9
$PLIMMIN
 10
0.0071835950613108
 20
0.0009369707933118
  9
$PLIMMAX
 10
841.0071835950612
 20
594.0009369707929
  9
$UNITMODE
 70
     0
  9
$VISRETAIN
 70
     1
  9
$PLINEGEN
 70
     0
  9
$PSLTSCALE
 70
     1
  9
$TREEDEPTH
 70
  3020
  9
$CMLSTYLE
  2
Standard
  9
$CMLJUST
 70
     0
  9
$CMLSCALE
 40
1.0
  9
$PROXYGRAPHICS
 70
     1
  9
$MEASUREMENT
 70
     0
  9
$CELWEIGHT
370
    -1
  9
$ENDCAPS
280
     0
  9
$JOINSTYLE
280
     0
  9
$LWDISPLAY
290
     0
  9
$INSUNITS
 70
     0
  9
$HYPERLINKBASE
  1

  9
$STYLESHEET
  1

  9
$XEDIT
290
     1
  9
$CEPSNTYPE
380
     0
  9
$PSTYLEMODE
290
     1
  9
$FINGERPRINTGUID
  2
{B3E51BCE-DA59-4CA3-867E-CC2EBAE46A45}
  9
$VERSIONGUID
  2
{02BBD5AF-8C36-46FD-8986-446F014908F7}
  9
$EXTNAMES
290
     1
  9
$PSVPSCALE
 40
0.0
  9
$OLESTARTUP
290
     0
  9
$SORTENTS
280
   127
  9
$INDEXCTL
280
     0
  9
$HIDETEXT
280
     0
  9
$XCLIPFRAME
290
     0
  9
$HALOGAP
280
     0
  9
$OBSCOLOR
 70
   257
  9
$OBSLTYPE
280
     0
  9
$INTERSECTIONDISPLAY
280
     0
  9
$INTERSECTIONCOLOR
 70
   257
  9
$DIMASSOC
280
     1
  9
$PROJECTNAME
  1

  0
ENDSEC
  0
SECTION
  2
CLASSES
  0
CLASS
  1
ACDBDICTIONARYWDFLT
  2
AcDbDictionaryWithDefault
  3
ObjectDBX Classes
 90
        0
 91
        1
280
     0
281
     0
  0
CLASS
  1
MATERIAL
  2
AcDbMaterial
  3
ObjectDBX Classes
 90
     1024
 91
        3
280
     0
281
     0
  0
CLASS
  1
VISUALSTYLE
  2
AcDbVisualStyle
  3
ObjectDBX Classes
 90
     4095
 91
       16
280
     0
281
     0
  0
CLASS
  1
TABLESTYLE
  2
AcDbTableStyle
  3
ObjectDBX Classes
 90
     4095
 91
        1
280
     0
281
     0
  0
CLASS
  1
SORTENTSTABLE
  2
AcDbSortentsTable
  3
ObjectDBX Classes
 90
        0
 91
        1
280
     0
281
     0
  0
CLASS
  1
DICTIONARYVAR
  2
AcDbDictionaryVar
  3
ObjectDBX Classes
 90
        0
 91
        1
280
     0
281
     0
  0
ENDSEC
  0
SECTION
  2
TABLES
  0
TABLE
  2
VPORT
  5
2006
330
0
100
AcDbSymbolTable
 70
     1
  0
VPORT
  5
2039
330
2006
100
AcDbSymbolTableRecord
100
AcDbViewportTableRecord
  2
*ACTIVE
 70
     0
 10
0.0
 20
0.0
 11
1.0
 21
1.0
 12
903.9631130978337
 22
610.6513152543279
 13
0.0
 23
0.0
 14
10.0
 24
10.0
 15
10.0
 25
10.0
 16
0.0
 26
0.0
 36
1.0
 17
0.0
 27
0.0
 37
0.0
 40
8.704883997485467
 41
3.368731563421829
 42
50.0
 43
0.0
 44
0.0
 50
0.0
 51
0.0
 71
     0
 72
  1000
 73
     1
 74
     3
 75
     0
 76
     0
 77
     0
 78
     0
281
     0
 65
     1
110
0.0
120
0.0
130
0.0
111
1.0
121
0.0
131
0.0
112
0.0
122
1.0
132
0.0
 79
     0
146
0.0
  0
ENDTAB
  0
TABLE
  2
LTYPE
  5
2003
330
0
100
AcDbSymbolTable
 70
     2
  0
LTYPE
  5
2026
330
2003
100
AcDbSymbolTableRecord
100
AcDbLinetypeTableRecord
  2
ByBlock
 70
     0
  3

 72
    65
 73
     0
 40
0.0
  0
LTYPE
  5
2027
330
2003
100
AcDbSymbolTableRecord
100
AcDbLinetypeTableRecord
  2
ByLayer
 70
     0
  3

 72
    65
 73
     0
 40
0.0
  0
LTYPE
  5
2028
330
2003
100
AcDbSymbolTableRecord
100
AcDbLinetypeTableRecord
  2
CONTINUOUS
 70
     0
  3
Solid line
 72
    65
 73
     0
 40
0.0
  0
LTYPE
  5
203A
330
2003
100
AcDbSymbolTableRecord
100
AcDbLinetypeTableRecord
  2
ACAD_ISO04W100
 70
     0
  3
ISO long-dash dot ____ . ____ . ____ . ____ . _
 72
    65
 73
     4
 40
30.0
 49
24.0
 74
     0
 49
-3.0
 74
     0
 49
0.0
 74
     0
 49
-3.0
 74
     0
  0
ENDTAB
  0
TABLE
  2
LAYER
  5
2000
102
{ACAD_XDICTIONARY
360
207B
102
}
330
0
100
AcDbSymbolTable
 70
     9
  0
LAYER
  5
2023
330
2000
100
AcDbSymbolTableRecord
100
AcDbLayerTableRecord
  2
0
 70
     0
 62
     7
  6
CONTINUOUS
370
    -3
390
200D
  0
LAYER
  5
203B
330
2000
100
AcDbSymbolTableRecord
100
AcDbLayerTableRecord
  2
07
 70
     0
 62
     7
  6
CONTINUOUS
370
    -3
390
200D
  0
LAYER
  5
203C
330
2000
100
AcDbSymbolTableRecord
100
AcDbLayerTableRecord
  2
035
 70
     0
 62
     5
  6
CONTINUOUS
370
    -3
390
200D
  0
LAYER
  5
203D
330
2000
100
AcDbSymbolTableRecord
100
AcDbLayerTableRecord
  2
05
 70
     0
 62
     6
  6
CONTINUOUS
370
    -3
390
200D
  0
LAYER
  5
203E
330
2000
100
AcDbSymbolTableRecord
100
AcDbLayerTableRecord
  2
025
 70
     0
 62
     1
  6
CONTINUOUS
370
    -3
390
200D
  0
LAYER
  5
203F
330
2000
100
AcDbSymbolTableRecord
100
AcDbLayerTableRecord
  2
DEFPOINTS
 70
     0
 62
     7
  6
CONTINUOUS
290
     0
370
    -3
390
200D
  0
LAYER
  5
2040
330
2000
100
AcDbSymbolTableRecord
100
AcDbLayerTableRecord
  2
\U+7C97\U+5B9E\U+7EBF
 70
     0
 62
     7
  6
CONTINUOUS
370
    -3
390
200D
  0
LAYER
  5
2041
330
2000
100
AcDbSymbolTableRecord
100
AcDbLayerTableRecord
  2
\U+6807\U+6CE8\U+7EBF
 70
     0
 62
     7
  6
CONTINUOUS
370
    -3
390
200D
  0
LAYER
  5
2042
330
2000
100
AcDbSymbolTableRecord
100
AcDbLayerTableRecord
  2
\U+4E2D\U+5FC3\U+7EBF
 70
     0
 62
     7
  6
ACAD_ISO04W100
370
    -3
390
200D
  0
ENDTAB
  0
TABLE
  2
STYLE
  5
2001
330
0
100
AcDbSymbolTable
 70
     4
  0
STYLE
  5
2024
330
2001
100
AcDbSymbolTableRecord
100
AcDbTextStyleTableRecord
  2
STANDARD
 70
     0
 40
0.0
 41
1.0
 50
0.0
 71
     0
 42
2.5
  3
txt
  4

  0
STYLE
  5
2038
330
2001
100
AcDbSymbolTableRecord
100
AcDbTextStyleTableRecord
  2
\U+C2A4\U+D0C0\U+C77C2
 70
     0
 40
0.3937
 41
1.0
 50
0.0
 71
     0
 42
0.3937
  3
txt.shx
  4

  0
STYLE
  5
2043
330
2001
100
AcDbSymbolTableRecord
100
AcDbTextStyleTableRecord
  2
ISO_PROPORTIONAL
 70
     0
 40
0.0
 41
1.0
 50
0.0
 71
     0
 42
2.5
  3
isocp.shx
  4

  0
STYLE
  5
2044
330
2001
100
AcDbSymbolTableRecord
100
AcDbTextStyleTableRecord
  2
\U+C2A4\U+D0C0\U+C77C1
 70
     0
 40
0.1968
 41
1.0
 50
0.0
 71
     0
 42
2.5
  3
txt.shx
  4

  0
ENDTAB
  0
TABLE
  2
VIEW
  5
2004
330
0
100
AcDbSymbolTable
 70
     0
  0
ENDTAB
  0
TABLE
  2
UCS
  5
2005
330
0
100
AcDbSymbolTable
 70
     0
  0
ENDTAB
  0
TABLE
  2
APPID
  5
2007
330
0
100
AcDbSymbolTable
 70
    12
  0
APPID
  5
2025
330
2007
100
AcDbSymbolTableRecord
100
AcDbRegAppTableRecord
  2
ACAD
 70
     0
  0
APPID
  5
2045
330
2007
100
AcDbSymbolTableRecord
100
AcDbRegAppTableRecord
  2
GENIUS_GENTRA_14
 70
     0
  0
APPID
  5
2046
330
2007
100
AcDbSymbolTableRecord
100
AcDbRegAppTableRecord
  2
GENIUS_GENODEF_13
 70
     0
  0
APPID
  5
2047
330
2007
100
AcDbSymbolTableRecord
100
AcDbRegAppTableRecord
  2
GENIUS_GENOBJ-N-TIT_13
 70
     0
  0
APPID
  5
2048
330
2007
100
AcDbSymbolTableRecord
100
AcDbRegAppTableRecord
  2
GENIUS_GENTITLE_13
 70
     0
  0
APPID
  5
2049
330
2007
100
AcDbSymbolTableRecord
100
AcDbRegAppTableRecord
  2
GENIUS_GENOENT_13
 70
     0
  0
APPID
  5
204A
330
2007
100
AcDbSymbolTableRecord
100
AcDbRegAppTableRecord
  2
GENIUS_GENOREF_13
 70
     0
  0
APPID
  5
204B
330
2007
100
AcDbSymbolTableRecord
100
AcDbRegAppTableRecord
  2
GENIUS_GENOLIS_13
 70
     0
  0
APPID
  5
204C
330
2007
100
AcDbSymbolTableRecord
100
AcDbRegAppTableRecord
  2
GENIUS_GENOBJ-N-SDF_13
 70
     0
  0
APPID
  5
204D
330
2007
100
AcDbSymbolTableRecord
100
AcDbRegAppTableRecord
  2
GENIUS_GENSCREG_13
 70
     0
  0
APPID
  5
204E
330
2007
100
AcDbSymbolTableRecord
100
AcDbRegAppTableRecord
  2
ACAD_DSTYLE_DIMTEXT_FILL
 70
     0
  0
APPID
  5
204F
330
2007
100
AcDbSymbolTableRecord
100
AcDbRegAppTableRecord
  2
ACAD_PSEXT
 70
     0
  0
ENDTAB
  0
TABLE
  2
DIMSTYLE
  5
2008
330
0
100
AcDbSymbolTable
 70
     4
100
AcDbDimStyleTable
 71
     0
  0
DIMSTYLE
105
2050
330
2008
100
AcDbSymbolTableRecord
100
AcDbDimStyleTableRecord
  2
DIN
 70
     0
 41
2.5
 42
0.625
 43
3.75
 44
1.25
 74
     0
 77
     1
 78
     8
140
2.5
141
2.5
143
0.0394
145
1.0
147
0.625
172
     1
273
     3
277
     3
279
     2
284
     8
285
     8
286
     8
340
2038
  0
DIMSTYLE
105
2051
330
2008
100
AcDbSymbolTableRecord
100
AcDbDimStyleTableRecord
  2
ISO-25
 70
     0
 41
10.0
 42
0.625
 43
3.75
 44
10.0
 73
     0
 74
     0
 77
     1
 78
     8
140
20.0
141
2.5
143
0.03937007874016
147
10.0
171
     3
172
     1
273
     3
277
     3
279
     2
284
     8
285
     8
286
     8
340
2038
  0
DIMSTYLE
105
2052
330
2008
100
AcDbSymbolTableRecord
100
AcDbDimStyleTableRecord
  2
\U+526F\U+672CISO-25
 70
     0
 41
15.0
 42
0.625
 43
3.75
 44
2.0
 73
     0
 74
     0
 77
     1
 78
     8
140
22.0
141
2.5
143
0.03937007874016
147
10.0
171
     3
273
     3
277
     3
279
     2
284
     8
285
     8
286
     8
340
2038
  0
DIMSTYLE
105
2053
330
2008
100
AcDbSymbolTableRecord
100
AcDbDimStyleTableRecord
  2
\U+526F\U+672C__2_ISO-25
 70
     0
 41
10.0
 42
0.625
 43
3.75
 44
10.0
 73
     0
 74
     0
 77
     1
 78
     8
140
10.0
141
2.5
143
0.03937007874016
147
10.0
171
     3
172
     1
273
     3
277
     3
279
     2
284
     8
285
     8
286
     8
340
2038
  0
ENDTAB
  0
TABLE
  2
BLOCK_RECORD
  5
1FFF
330
0
100
AcDbSymbolTable
 70
    18
  0
BLOCK_RECORD
  5
2034
330
1FFF
100
AcDbSymbolTableRecord
100
AcDbBlockTableRecord
  2
*Model_Space
340
2037
  0
BLOCK_RECORD
  5
2030
330
1FFF
100
AcDbSymbolTableRecord
100
AcDbBlockTableRecord
  2
*Paper_Space
340
2033
  0
BLOCK_RECORD
  5
2056
330
1FFF
100
AcDbSymbolTableRecord
100
AcDbBlockTableRecord
  2
$MODEL_SPACE
340
0
  0
BLOCK_RECORD
  5
2058
330
1FFF
100
AcDbSymbolTableRecord
100
AcDbBlockTableRecord
  2
$PAPER_SPACE
340
0
  0
BLOCK_RECORD
  5
205A
330
1FFF
100
AcDbSymbolTableRecord
100
AcDbBlockTableRecord
  2
*D2
340
0
  0
BLOCK_RECORD
  5
205C
330
1FFF
100
AcDbSymbolTableRecord
100
AcDbBlockTableRecord
  2
*U3
340
0
102
{BLKREFS
331
1ED8
102
}
  0
BLOCK_RECORD
  5
205D
330
1FFF
100
AcDbSymbolTableRecord
100
AcDbBlockTableRecord
  2
*D4
340
0
  0
BLOCK_RECORD
  5
205F
330
1FFF
100
AcDbSymbolTableRecord
100
AcDbBlockTableRecord
  2
*U5
340
0
102
{BLKREFS
331
1EE5
102
}
  0
BLOCK_RECORD
  5
2060
330
1FFF
100
AcDbSymbolTableRecord
100
AcDbBlockTableRecord
  2
*D6
340
0
  0
BLOCK_RECORD
  5
2062
330
1FFF
100
AcDbSymbolTableRecord
100
AcDbBlockTableRecord
  2
*U7
340
0
102
{BLKREFS
331
1F83
102
}
  0
BLOCK_RECORD
  5
2063
330
1FFF
100
AcDbSymbolTableRecord
100
AcDbBlockTableRecord
  2
*D8
340
0
  0
BLOCK_RECORD
  5
2065
330
1FFF
100
AcDbSymbolTableRecord
100
AcDbBlockTableRecord
  2
*U9
340
0
102
{BLKREFS
331
1EFF
102
}
  0
BLOCK_RECORD
  5
2066
330
1FFF
100
AcDbSymbolTableRecord
100
AcDbBlockTableRecord
  2
*D10
340
0
  0
BLOCK_RECORD
  5
2068
330
1FFF
100
AcDbSymbolTableRecord
100
AcDbBlockTableRecord
  2
*U11
340
0
102
{BLKREFS
331
1F08
102
}
  0
BLOCK_RECORD
  5
2069
330
1FFF
100
AcDbSymbolTableRecord
100
AcDbBlockTableRecord
  2
*D12
340
0
  0
BLOCK_RECORD
  5
206B
330
1FFF
100
AcDbSymbolTableRecord
100
AcDbBlockTableRecord
  2
*U13
340
0
102
{BLKREFS
331
1F11
102
}
  0
BLOCK_RECORD
  5
206C
330
1FFF
100
AcDbSymbolTableRecord
100
AcDbBlockTableRecord
  2
*D14
340
0
  0
BLOCK_RECORD
  5
206E
330
1FFF
100
AcDbSymbolTableRecord
100
AcDbBlockTableRecord
  2
*U15
340
0
102
{BLKREFS
331
1F1A
102
}
  0
BLOCK_RECORD
  5
2076
330
1FFF
100
AcDbSymbolTableRecord
100
AcDbBlockTableRecord
  2
*U16
340
0
  0
ENDTAB
  0
ENDSEC
  0
SECTION
  2
BLOCKS
  0
BLOCK
  5
2035
330
2034
100
AcDbEntity
  8
0
100
AcDbBlockBegin
  2
*Model_Space
 70
     0
 10
0.0
 20
0.0
 30
0.0
  3
*Model_Space
  1

  0
ENDBLK
  5
2036
330
2034
100
AcDbEntity
  8
0
100
AcDbBlockEnd
  0
BLOCK
  5
2031
330
2030
100
AcDbEntity
 67
     1
  8
0
100
AcDbBlockBegin
  2
*Paper_Space
 70
     0
 10
0.0
 20
0.0
 30
0.0
  3
*Paper_Space
  1

  0
ENDBLK
  5
2032
330
2030
100
AcDbEntity
 67
     1
  8
0
100
AcDbBlockEnd
  0
BLOCK
  5
2057
330
2056
100
AcDbEntity
  8
0
100
AcDbBlockBegin
  2
$MODEL_SPACE
 70
     2
 10
0.0
 20
0.0
 30
0.0
  3
$MODEL_SPACE
  1

  0
ENDBLK
  5
9
330
2056
100
AcDbEntity
  8
0
100
AcDbBlockEnd
  0
BLOCK
  5
2059
330
2058
100
AcDbEntity
  8
0
100
AcDbBlockBegin
  2
$PAPER_SPACE
 70
     0
 10
0.0
 20
0.0
 30
0.0
  3
$PAPER_SPACE
  1

  0
ENDBLK
  5
E
330
2058
100
AcDbEntity
  8
0
100
AcDbBlockEnd
  0
BLOCK
  5
205B
330
205A
100
AcDbEntity
  8
0
100
AcDbBlockBegin
  2
*D2
 70
     1
 10
0.0
 20
0.0
 30
0.0
  3
*D2
  1

  0
LINE
  5
1ED3
330
205A
100
AcDbEntity
  8
0
 62
     0
100
AcDbLine
 10
888.0611779487789
 20
604.8263051951022
 30
0.0
 11
882.6431134342371
 21
604.8263051951022
 31
0.0
  0
LINE
  5
1ED4
330
205A
100
AcDbEntity
  8
0
 62
     0
100
AcDbLine
 10
888.0611779487789
 20
620.5743051950999
 30
0.0
 11
882.6431134342371
 21
620.5743051950999
 31
0.0
  0
LINE
  5
1ED5
330
205A
100
AcDbEntity
  8
0
 62
     0
100
AcDbLine
 10
882.843113434237
 20
605.0263051951024
 30
0.0
 11
882.843113434237
 21
620.3743051951001
 31
0.0
  0
SOLID
  5
1ED6
330
205A
100
AcDbEntity
  8
0
 62
     0
100
AcDbTrace
 10
882.809780100904
 20
605.0263051951024
 30
0.0
 11
882.8764467675705
 21
605.0263051951024
 31
0.0
 12
882.843113434237
 22
604.8263051951022
 32
0.0
 13
882.843113434237
 23
604.8263051951022
 33
0.0
  0
SOLID
  5
1ED7
330
205A
100
AcDbEntity
  8
0
 62
     0
100
AcDbTrace
 10
882.809780100904
 20
620.3743051951001
 30
0.0
 11
882.8764467675705
 21
620.3743051951001
 31
0.0
 12
882.843113434237
 22
620.5743051950999
 32
0.0
 13
882.843113434237
 23
620.5743051950999
 33
0.0
  0
INSERT
  5
1ED8
330
205A
100
AcDbEntity
  8
0
100
AcDbBlockReference
  2
*U3
 10
0.0
 20
0.0
 30
0.0
  0
POINT
  5
1ED9
330
205A
100
AcDbEntity
  8
DEFPOINTS
 62
     0
100
AcDbPoint
 10
888.1611779487791
 20
604.8263051951022
 30
0.0
  0
POINT
  5
1EDA
330
205A
100
AcDbEntity
  8
DEFPOINTS
 62
     0
100
AcDbPoint
 10
888.1611779487791
 20
620.5743051950999
 30
0.0
  0
POINT
  5
1EDB
330
205A
100
AcDbEntity
  8
DEFPOINTS
 62
     0
100
AcDbPoint
 10
882.843113434237
 20
620.5743051950999
 30
0.0
  0
ENDBLK
  5
1EDD
330
205A
100
AcDbEntity
  8
0
100
AcDbBlockEnd
  0
BLOCK
  5
206F
330
205C
100
AcDbEntity
  8
0
100
AcDbBlockBegin
  2
*U3
 70
     1
 10
0.0
 20
0.0
 30
0.0
  3
*U3
  1

  0
TEXT
  5
1FD7
330
205C
100
AcDbEntity
  8
0
 62
     0
100
AcDbText
 10
882.7931134342371
 20
611.7816718617679
 30
0.0
 40
0.3937
  1
15.748
 50
90.0
  7
\U+C2A4\U+D0C0\U+C77C2
100
AcDbText
  0
ENDBLK
  5
1FD9
330
205C
100
AcDbEntity
  8
0
100
AcDbBlockEnd
  0
BLOCK
  5
205E
330
205D
100
AcDbEntity
  8
0
100
AcDbBlockBegin
  2
*D4
 70
     1
 10
0.0
 20
0.0
 30
0.0
  3
*D4
  1

  0
LINE
  5
1EE0
330
205D
100
AcDbEntity
  8
0
 62
     0
100
AcDbLine
 10
888.0611779487789
 20
604.5900851951022
 30
0.0
 11
881.8074250533179
 21
604.5900851951022
 31
0.0
  0
LINE
  5
1EE1
330
205D
100
AcDbEntity
  8
0
 62
     0
100
AcDbLine
 10
888.0611779487789
 20
620.8105251951
 30
0.0
 11
881.8074250533179
 21
620.8105251951
 31
0.0
  0
LINE
  5
1EE2
330
205D
100
AcDbEntity
  8
0
 62
     0
100
AcDbLine
 10
882.0074250533179
 20
604.7900851951022
 30
0.0
 11
882.0074250533179
 21
620.6105251950996
 31
0.0
  0
SOLID
  5
1EE3
330
205D
100
AcDbEntity
  8
0
 62
     0
100
AcDbTrace
 10
881.9740917199847
 20
604.7900851951022
 30
0.0
 11
882.0407583866513
 21
604.7900851951022
 31
0.0
 12
882.0074250533179
 22
604.5900851951022
 32
0.0
 13
882.0074250533179
 23
604.5900851951022
 33
0.0
  0
SOLID
  5
1EE4
330
205D
100
AcDbEntity
  8
0
 62
     0
100
AcDbTrace
 10
881.9740917199847
 20
620.6105251950996
 30
0.0
 11
882.0407583866513
 21
620.6105251950996
 31
0.0
 12
882.0074250533179
 22
620.8105251951
 32
0.0
 13
882.0074250533179
 23
620.8105251951
 33
0.0
  0
INSERT
  5
1EE5
330
205D
100
AcDbEntity
  8
0
100
AcDbBlockReference
  2
*U5
 10
0.0
 20
0.0
 30
0.0
  0
POINT
  5
1EE6
330
205D
100
AcDbEntity
  8
DEFPOINTS
 62
     0
100
AcDbPoint
 10
888.1611779487791
 20
604.5900851951022
 30
0.0
  0
POINT
  5
1EE7
330
205D
100
AcDbEntity
  8
DEFPOINTS
 62
     0
100
AcDbPoint
 10
888.1611779487791
 20
620.8105251951
 30
0.0
  0
POINT
  5
1EE8
330
205D
100
AcDbEntity
  8
DEFPOINTS
 62
     0
100
AcDbPoint
 10
882.0074250533179
 20
620.8105251951
 30
0.0
  0
ENDBLK
  5
1EEA
330
205D
100
AcDbEntity
  8
0
100
AcDbBlockEnd
  0
BLOCK
  5
2070
330
205F
100
AcDbEntity
  8
0
100
AcDbBlockBegin
  2
*U5
 70
     1
 10
0.0
 20
0.0
 30
0.0
  3
*U5
  1

  0
TEXT
  5
1FDB
330
205F
100
AcDbEntity
  8
0
 62
     0
100
AcDbText
 10
881.9574250533177
 20
611.6176301951012
 30
0.0
 40
0.3937
  1
16.2204
 50
90.0
  7
\U+C2A4\U+D0C0\U+C77C2
100
AcDbText
  0
ENDBLK
  5
1FDD
330
205F
100
AcDbEntity
  8
0
100
AcDbBlockEnd
  0
BLOCK
  5
2061
330
2060
100
AcDbEntity
  8
0
100
AcDbBlockBegin
  2
*D6
 70
     1
 10
0.0
 20
0.0
 30
0.0
  3
*D6
  1

  0
LINE
  5
1F7E
330
2060
100
AcDbEntity
  8
0
 62
     0
100
AcDbLine
 10
883.7286
 20
609.096375195109
 30
0.0
 11
883.7286
 21
603.5625977020087
 31
0.0
  0
LINE
  5
1F7F
330
2060
100
AcDbEntity
  8
0
 62
     0
100
AcDbLine
 10
913.082387948779
 20
609.0963751951021
 30
0.0
 11
913.082387948779
 21
603.5625977020087
 31
0.0
  0
LINE
  5
1F80
330
2060
100
AcDbEntity
  8
0
 62
     0
100
AcDbLine
 10
883.9285999999999
 20
603.7625977020089
 30
0.0
 11
912.8823879487788
 21
603.7625977020089
 31
0.0
  0
SOLID
  5
1F81
330
2060
100
AcDbEntity
  8
0
 62
     0
100
AcDbTrace
 10
883.9285999999999
 20
603.7959310353421
 30
0.0
 11
883.9285999999999
 21
603.7292643686753
 31
0.0
 12
883.7286
 22
603.7625977020089
 32
0.0
 13
883.7286
 23
603.7625977020089
 33
0.0
  0
SOLID
  5
1F82
330
2060
100
AcDbEntity
  8
0
 62
     0
100
AcDbTrace
 10
912.8823879487788
 20
603.7959310353421
 30
0.0
 11
912.8823879487788
 21
603.7292643686753
 31
0.0
 12
913.082387948779
 22
603.7625977020089
 32
0.0
 13
913.082387948779
 23
603.7625977020089
 33
0.0
  0
INSERT
  5
1F83
330
2060
100
AcDbEntity
  8
0
100
AcDbBlockReference
  2
*U7
 10
0.0
 20
0.0
 30
0.0
  0
POINT
  5
1F84
330
2060
100
AcDbEntity
  8
DEFPOINTS
 62
     0
100
AcDbPoint
 10
883.7286
 20
609.1963751951091
 30
0.0
  0
POINT
  5
1F85
330
2060
100
AcDbEntity
  8
DEFPOINTS
 62
     0
100
AcDbPoint
 10
913.082387948779
 20
609.1963751951022
 30
0.0
  0
POINT
  5
1F86
330
2060
100
AcDbEntity
  8
DEFPOINTS
 62
     0
100
AcDbPoint
 10
913.082387948779
 20
603.7625977020089
 30
0.0
  0
ENDBLK
  5
1EF7
330
2060
100
AcDbEntity
  8
0
100
AcDbBlockEnd
  0
BLOCK
  5
2075
330
2062
100
AcDbEntity
  8
0
100
AcDbBlockBegin
  2
*U7
 70
     1
 10
0.0
 20
0.0
 30
0.0
  3
*U7
  1

  0
TEXT
  5
1FEF
330
2062
100
AcDbEntity
  8
0
 62
     0
100
AcDbText
 10
897.2243939743895
 20
603.8125977020087
 30
0.0
 40
0.3937
  1
29.3538
  7
\U+C2A4\U+D0C0\U+C77C2
100
AcDbText
  0
ENDBLK
  5
1FF1
330
2062
100
AcDbEntity
  8
0
100
AcDbBlockEnd
  0
BLOCK
  5
2064
330
2063
100
AcDbEntity
  8
0
100
AcDbBlockBegin
  2
*D8
 70
     1
 10
0.0
 20
0.0
 30
0.0
  3
*D8
  1

  0
LINE
  5
1EFA
330
2063
100
AcDbEntity
  8
0
 62
     0
100
AcDbLine
 10
883.5548879487696
 20
609.0963751951094
 30
0.0
 11
883.5548879487696
 21
602.7766562708227
 31
0.0
  0
LINE
  5
1EFB
330
2063
100
AcDbEntity
  8
0
 62
     0
100
AcDbLine
 10
913.3186079487835
 20
609.096375195109
 30
0.0
 11
913.3186079487835
 21
602.7766562708227
 31
0.0
  0
LINE
  5
1EFC
330
2063
100
AcDbEntity
  8
0
 62
     0
100
AcDbLine
 10
883.7548879487696
 20
602.9766562708225
 30
0.0
 11
913.1186079487834
 21
602.9766562708225
 31
0.0
  0
SOLID
  5
1EFD
330
2063
100
AcDbEntity
  8
0
 62
     0
100
AcDbTrace
 10
883.7548879487696
 20
603.009989604156
 30
0.0
 11
883.7548879487696
 21
602.9433229374895
 31
0.0
 12
883.5548879487696
 22
602.9766562708225
 32
0.0
 13
883.5548879487696
 23
602.9766562708225
 33
0.0
  0
SOLID
  5
1EFE
330
2063
100
AcDbEntity
  8
0
 62
     0
100
AcDbTrace
 10
913.1186079487834
 20
603.009989604156
 30
0.0
 11
913.1186079487834
 21
602.9433229374895
 31
0.0
 12
913.3186079487835
 22
602.9766562708225
 32
0.0
 13
913.3186079487835
 23
602.9766562708225
 33
0.0
  0
INSERT
  5
1EFF
330
2063
100
AcDbEntity
  8
0
100
AcDbBlockReference
  2
*U9
 10
0.0
 20
0.0
 30
0.0
  0
POINT
  5
1F00
330
2063
100
AcDbEntity
  8
DEFPOINTS
 62
     0
100
AcDbPoint
 10
883.5548879487696
 20
609.1963751951094
 30
0.0
  0
POINT
  5
1F01
330
2063
100
AcDbEntity
  8
DEFPOINTS
 62
     0
100
AcDbPoint
 10
913.3186079487835
 20
609.1963751951091
 30
0.0
  0
POINT
  5
1F02
330
2063
100
AcDbEntity
  8
DEFPOINTS
 62
     0
100
AcDbPoint
 10
913.3186079487835
 20
602.9766562708225
 30
0.0
  0
ENDBLK
  5
1F04
330
2063
100
AcDbEntity
  8
0
100
AcDbBlockEnd
  0
BLOCK
  5
2071
330
2065
100
AcDbEntity
  8
0
100
AcDbBlockBegin
  2
*U9
 70
     1
 10
0.0
 20
0.0
 30
0.0
  3
*U9
  1

  0
TEXT
  5
1FDF
330
2065
100
AcDbEntity
  8
0
 62
     0
100
AcDbText
 10
897.2556479487765
 20
603.0266562708227
 30
0.0
 40
0.3937
  1
29.7637
  7
\U+C2A4\U+D0C0\U+C77C2
100
AcDbText
  0
ENDBLK
  5
1FE1
330
2065
100
AcDbEntity
  8
0
100
AcDbBlockEnd
  0
BLOCK
  5
2067
330
2066
100
AcDbEntity
  8
0
100
AcDbBlockBegin
  2
*D10
 70
     1
 10
0.0
 20
0.0
 30
0.0
  3
*D10
  1

  0
LINE
  5
1F07
330
2066
100
AcDbEntity
  8
0
 62
     0
100
AcDbLine
 10
886.63215578001
 20
617.7144858778047
 30
0.0
 11
884.6826898742483
 21
619.527464510407
 31
0.0
  0
INSERT
  5
1F08
330
2066
100
AcDbEntity
  8
0
100
AcDbBlockReference
  2
*U11
 10
0.0
 20
0.0
 30
0.0
  0
SOLID
  5
1F09
330
2066
100
AcDbEntity
  8
0
 62
     0
100
AcDbTrace
 10
884.7053901300842
 20
619.5518737196541
 30
0.0
 11
884.6599896184121
 21
619.5030553011592
 31
0.0
 12
884.5362346187629
 22
619.6636660454232
 32
0.0
 13
884.5362346187629
 23
619.6636660454232
 33
0.0
  0
POINT
  5
1F0A
330
2066
100
AcDbEntity
  8
DEFPOINTS
 62
     0
100
AcDbPoint
 10
884.5362346187629
 20
619.6636660454232
 30
0.0
  0
POINT
  5
1F0B
330
2066
100
AcDbEntity
  8
DEFPOINTS
 62
     0
100
AcDbPoint
 10
886.9002714162263
 20
617.4651417276502
 30
0.0
  0
ENDBLK
  5
1F0D
330
2066
100
AcDbEntity
  8
0
100
AcDbBlockEnd
  0
BLOCK
  5
2072
330
2068
100
AcDbEntity
  8
0
100
AcDbBlockBegin
  2
*U11
 70
     1
 10
0.0
 20
0.0
 30
0.0
  3
*U11
  1

  0
TEXT
  5
1FE3
330
2068
100
AcDbEntity
  8
0
 62
     0
100
AcDbText
 10
884.8998093273587
 20
619.3938264055075
 30
0.0
 40
0.3937
  1
R3.2283
 50
317.077563401097
  7
\U+C2A4\U+D0C0\U+C77C2
100
AcDbText
  0
ENDBLK
  5
1FE5
330
2068
100
AcDbEntity
  8
0
100
AcDbBlockEnd
  0
BLOCK
  5
206A
330
2069
100
AcDbEntity
  8
0
100
AcDbBlockBegin
  2
*D12
 70
     1
 10
0.0
 20
0.0
 30
0.0
  3
*D12
  1

  0
LINE
  5
1F10
330
2069
100
AcDbEntity
  8
0
 62
     0
100
AcDbLine
 10
887.5060840648679
 20
617.7867424132547
 30
0.0
 11
887.2478078400833
 21
620.5682102235105
 31
0.0
  0
INSERT
  5
1F11
330
2069
100
AcDbEntity
  8
0
100
AcDbBlockReference
  2
*U13
 10
0.0
 20
0.0
 30
0.0
  0
SOLID
  5
1F12
330
2069
100
AcDbEntity
  8
0
 62
     0
100
AcDbTrace
 10
887.2809983918566
 20
620.5712921683668
 30
0.0
 11
887.2146172883102
 21
620.5651282786542
 31
0.0
 12
887.2293161709462
 22
620.7673535341504
 32
0.0
 13
887.2293161709462
 23
620.7673535341504
 33
0.0
  0
POINT
  5
1F13
330
2069
100
AcDbEntity
  8
DEFPOINTS
 62
     0
100
AcDbPoint
 10
887.2293161709462
 20
620.7673535341504
 30
0.0
  0
POINT
  5
1F14
330
2069
100
AcDbEntity
  8
DEFPOINTS
 62
     0
100
AcDbPoint
 10
888.16117794878
 20
610.7318051951001
 30
0.0
  0
ENDBLK
  5
1F16
330
2069
100
AcDbEntity
  8
0
100
AcDbBlockEnd
  0
BLOCK
  5
2073
330
206B
100
AcDbEntity
  8
0
100
AcDbBlockBegin
  2
*U13
 70
     1
 10
0.0
 20
0.0
 30
0.0
  3
*U13
  1

  0
TEXT
  5
1FE7
330
206B
100
AcDbEntity
  8
0
 62
     0
100
AcDbText
 10
887.3207082541647
 20
620.3239040024953
 30
0.0
 40
0.3937
  1
R10.0787
 50
275.3050497866692
  7
\U+C2A4\U+D0C0\U+C77C2
100
AcDbText
  0
ENDBLK
  5
1FE9
330
206B
100
AcDbEntity
  8
0
100
AcDbBlockEnd
  0
BLOCK
  5
206D
330
206C
100
AcDbEntity
  8
0
100
AcDbBlockBegin
  2
*D14
 70
     1
 10
0.0
 20
0.0
 30
0.0
  3
*D14
  1

  0
LINE
  5
1F19
330
206C
100
AcDbEntity
  8
0
 62
     0
100
AcDbLine
 10
886.5609472938222
 20
616.6270335024992
 30
0.0
 11
883.7724918708618
 21
616.7937252597607
 31
0.0
  0
INSERT
  5
1F1A
330
206C
100
AcDbEntity
  8
0
100
AcDbBlockReference
  2
*U15
 10
0.0
 20
0.0
 30
0.0
  0
SOLID
  5
1F1B
330
206C
100
AcDbEntity
  8
0
 62
     0
100
AcDbTrace
 10
883.7744809614346
 20
616.8269991929487
 30
0.0
 11
883.7705027802893
 21
616.7604513265727
 31
0.0
 12
883.572848271733
 22
616.8056598031967
 32
0.0
 13
883.572848271733
 23
616.8056598031967
 33
0.0
  0
POINT
  5
1F1C
330
206C
100
AcDbEntity
  8
DEFPOINTS
 62
     0
100
AcDbPoint
 10
883.572848271733
 20
616.8056598031967
 30
0.0
  0
POINT
  5
1F1D
330
206C
100
AcDbEntity
  8
DEFPOINTS
 62
     0
100
AcDbPoint
 10
893.633607948773
 20
616.2042351950989
 30
0.0
  0
ENDBLK
  5
1F1F
330
206C
100
AcDbEntity
  8
0
100
AcDbBlockEnd
  0
BLOCK
  5
2074
330
206E
100
AcDbEntity
  8
0
100
AcDbBlockBegin
  2
*U15
 70
     1
 10
0.0
 20
0.0
 30
0.0
  3
*U15
  1

  0
TEXT
  5
1FEB
330
206E
100
AcDbEntity
  8
0
 62
     0
100
AcDbText
 10
884.0250300056313
 20
616.8287179802477
 30
0.0
 40
0.3937
  1
R10.0787
 50
356.5789728168676
  7
\U+C2A4\U+D0C0\U+C77C2
100
AcDbText
  0
ENDBLK
  5
1FED
330
206E
100
AcDbEntity
  8
0
100
AcDbBlockEnd
  0
BLOCK
  5
2077
330
2076
100
AcDbEntity
  8
0
100
AcDbBlockBegin
  2
*U16
 70
     1
 10
0.0
 20
0.0
 30
0.0
  3
*U16
  1

  0
TEXT
  5
1FF3
330
2076
100
AcDbEntity
  8
0
100
AcDbText
 10
895.7296834468412
 20
610.3327817080979
 30
0.0
 40
0.4999990000000001
  1
Model : ED-3108
  7
\U+C2A4\U+D0C0\U+C77C2
100
AcDbText
  0
TEXT
  5
1FF4
330
2076
100
AcDbEntity
  8
0
100
AcDbText
 10
895.7312768106335
 20
609.7448826214312
 30
0.0
 40
0.28999942
  1
IMPORTANT ! 
  7
\U+C2A4\U+D0C0\U+C77C2
100
AcDbText
  0
TEXT
  5
1FF5
330
2076
100
AcDbEntity
  8
0
100
AcDbText
 10
895.7289768873314
 20
609.2196654569853
 30
0.0
 40
0.28999942
  1
This template is provided as a guide for Flush-Mount cutout only. 
  7
\U+C2A4\U+D0C0\U+C77C2
100
AcDbText
  0
TEXT
  5
1FF6
330
2076
100
AcDbEntity
  8
0
100
AcDbText
 10
895.7348312375549
 20
608.6944482925392
 30
0.0
 40
0.28999942
  1
Before beginning to cut countertop, compare physical dimension of the template and 
  7
\U+C2A4\U+D0C0\U+C77C2
100
AcDbText
  0
TEXT
  5
1FF7
330
2076
100
AcDbEntity
  8
0
100
AcDbText
 10
895.7377584126664
 20
608.1692311280932
 30
0.0
 40
0.28999942
  1
the cutout line with the actual sink unit for an accurate cut.
  7
\U+C2A4\U+D0C0\U+C77C2
100
AcDbText
  0
TEXT
  5
1FF8
330
2076
100
AcDbEntity
  8
0
100
AcDbText
 10
895.7346221536182
 20
607.6440139636472
 30
0.0
 40
0.28999942
  1
Houzer is not responsible for any countertop, installation or labor charges due to 
  7
\U+C2A4\U+D0C0\U+C77C2
100
AcDbText
  0
TEXT
  5
1FF9
330
2076
100
AcDbEntity
  8
0
100
AcDbText
 10
895.7254224604097
 20
607.1187967992009
 30
0.0
 40
0.28999942
  1
failure to follow these instructions.
  7
\U+C2A4\U+D0C0\U+C77C2
100
AcDbText
  0
TEXT
  5
1FFA
330
2076
100
AcDbEntity
  8
0
100
AcDbText
 10
895.7346221536182
 20
606.5935796347551
 30
0.0
 40
0.28999942
  1
HOUZER Inc.                  
  7
\U+C2A4\U+D0C0\U+C77C2
100
AcDbText
  0
LINE
  5
1FFB
330
2076
100
AcDbEntity
  8
0
100
AcDbLine
 10
900.1588382510949
 20
606.535579750755
 30
0.0
 11
904.1903947157235
 21
606.535579750755
 31
0.0
  0
TEXT
  5
1FFC
330
2076
100
AcDbEntity
  8
0
100
AcDbText
 10
900.1588382510949
 20
606.5935796347551
 30
0.0
 40
0.28999942
  1
www.HouzerSink.com 
  7
\U+C2A4\U+D0C0\U+C77C2
100
AcDbText
  0
ENDBLK
  5
1FFE
330
2076
100
AcDbEntity
  8
0
100
AcDbBlockEnd
  0
ENDSEC
  0
SECTION
  2
ENTITIES
  0
POINT
  5
37C
330
2034
100
AcDbEntity
  8
0
100
AcDbPoint
 10
170.4737662487822
 20
-90.83440570086338
 30
0.0
1001
GENIUS_GENOBJ-N-TIT_13
1002
{
1000
OWNER
1000
GEN
1002
}
1001
GENIUS_GENOENT_13
1002
{
1000
MYREF
1005
37C
1002
}
1002
{
1000
GRP
1005
0
1002
}
1001
GENIUS_GENOLIS_13
1002
{
1000
ENT
1005
0
1005
0
1002
}
1001
GENIUS_GENTITLE_13
1002
{
1000
SCALE
1000
1:1
1002
}
1002
{
1000
BORDER
1000
GEN_A1
1002
}
1002
{
1000
TITLE
1000
GENTITLE
1002
}
1002
{
1000
UNCHG
1002
{
1000
GEN-TITLE-SCA
1000
GEN-TITLE-SIZ
1002
}
1002
}
1002
{
1000
HRA
1005
0
1002
}
1002
{
1000
HTIT
1005
0
1002
}
1002
{
1000
GENIUSID
1005
37C
1002
}
1001
GENIUS_GENODEF_13
1002
{
1000
HIER
1070
     1
1002
}
1002
{
1000
MANEDIT
1070
     0
1002
}
1002
{
1000
NOSEL
1070
     0
1002
}
1002
{
1000
BEHIND
1070
     0
1002
}
1002
{
1000
REACTOR
1002
}
  0
TEXT
  5
384
330
2034
100
AcDbEntity
  8
0
100
AcDbText
 10
830.9999999999995
 20
-52.92726755347096
 30
0.0
 40
3.5
  1
!GENTITLE-INSERT
100
AcDbText
  0
TEXT
  5
385
330
2034
100
AcDbEntity
  8
0
100
AcDbText
 10
10.0
 20
-47.92726755347096
 30
0.0
 40
3.5
  1
!GENTITLE-LL
100
AcDbText
  0
TEXT
  5
386
330
2034
100
AcDbEntity
  8
0
100
AcDbText
 10
831.0
 20
526.0727324465289
 30
0.0
 40
3.5
  1
!GENTITLE-RU
100
AcDbText
  0
TEXT
  5
387
330
2034
100
AcDbEntity
  8
0
100
AcDbText
 10
841.0
 20
536.0727324465289
 30
0.0
 40
3.5
  1
!GENTITLE-MAX
100
AcDbText
  0
TEXT
  5
3FA
330
2034
100
AcDbEntity
  8
0
100
AcDbText
 10
684.8812705983662
 20
141.8068575944205
 30
0.0
 40
3.5
  1
!GENTITLE-INSERT
100
AcDbText
  0
TEXT
  5
3FB
330
2034
100
AcDbEntity
  8
0
100
AcDbText
 10
-136.1187294016335
 20
146.8068575944205
 30
0.0
 40
3.5
  1
!GENTITLE-LL
100
AcDbText
  0
TEXT
  5
3FC
330
2034
100
AcDbEntity
  8
0
100
AcDbText
 10
684.8812705983664
 20
720.8068575944203
 30
0.0
 40
3.5
  1
!GENTITLE-RU
100
AcDbText
  0
TEXT
  5
3FD
330
2034
100
AcDbEntity
  8
0
100
AcDbText
 10
694.8812705983664
 20
730.8068575944203
 30
0.0
 40
3.5
  1
!GENTITLE-MAX
100
AcDbText
  0
LINE
  5
1D64
330
2034
100
AcDbEntity
  8
\U+7C97\U+5B9E\U+7EBF
100
AcDbLine
 10
883.7286
 20
612.7315499999999
 30
0.0
 11
883.7286
 21
616.2042351950931
 31
0.0
  0
ARC
  5
1D74
330
2034
100
AcDbEntity
  8
\U+6807\U+6CE8\U+7EBF
100
AcDbCircle
 10
888.0986693561538
 20
610.7318042235332
 30
0.0
 40
9.842499999999999
100
AcDbArc
 50
90.0
 51
100.6065510418501
  0
ARC
  5
1D75
330
2034
100
AcDbEntity
  8
\U+6807\U+6CE8\U+7EBF
100
AcDbCircle
 10
893.5711000645834
 20
616.2042351465212
 30
0.0
 40
9.842499999999999
100
AcDbArc
 50
169.3934489582259
 51
180.0
  0
ARC
  5
1D76
330
2034
100
AcDbEntity
  8
\U+6807\U+6CE8\U+7EBF
100
AcDbCircle
 10
886.8377633549268
 20
617.4651409018182
 30
0.0
 40
2.992119999999999
100
AcDbArc
 50
100.6065510418501
 51
169.3934489582259
  0
LINE
  5
1D8C
330
2034
100
AcDbEntity
  8
\U+7C97\U+5B9E\U+7EBF
100
AcDbLine
 10
883.7286
 20
612.7003051951021
 30
0.0
 11
883.7286
 21
609.1963751951091
 31
0.0
  0
ARC
  5
1D8D
330
2034
100
AcDbEntity
  8
\U+6807\U+6CE8\U+7EBF
100
AcDbCircle
 10
888.0986693561535
 20
614.668806603874
 30
0.0
 40
9.842499999999999
100
AcDbArc
 50
259.3934489581499
 51
270.0
  0
ARC
  5
1D8E
330
2034
100
AcDbEntity
  8
\U+6807\U+6CE8\U+7EBF
100
AcDbCircle
 10
893.5710999760289
 20
609.196376166669
 30
0.0
 40
9.842499999999999
100
AcDbArc
 50
180.0
 51
190.6065510417741
  0
ARC
  5
1D8F
330
2034
100
AcDbEntity
  8
\U+6807\U+6CE8\U+7EBF
100
AcDbCircle
 10
886.8377633549268
 20
607.9354701199044
 30
0.0
 40
2.992119999999999
100
AcDbArc
 50
190.6065510417741
 51
259.3934489581499
  0
LINE
  5
1D9A
330
2034
100
AcDbEntity
  8
\U+7C97\U+5B9E\U+7EBF
100
AcDbLine
 10
913.1448701522392
 20
612.7003051465236
 30
0.0
 11
913.1448701522341
 21
616.2042354865697
 31
0.0
  0
ARC
  5
1D9B
330
2034
100
AcDbEntity
  8
\U+6807\U+6CE8\U+7EBF
100
AcDbCircle
 10
908.7748001522346
 20
610.73180548657
 30
0.0
 40
9.842499999999999
100
AcDbArc
 50
79.39344895814992
 51
90.0
  0
ARC
  5
1D9C
330
2034
100
AcDbEntity
  8
\U+6807\U+6CE8\U+7EBF
100
AcDbCircle
 10
903.3023701522346
 20
616.2042354865697
 30
0.0
 40
9.842499999999999
100
AcDbArc
 50
0.0
 51
10.60655104177406
  0
ARC
  5
1D9D
330
2034
100
AcDbEntity
  8
\U+6807\U+6CE8\U+7EBF
100
AcDbCircle
 10
910.0357066847875
 20
617.46514201912
 30
0.0
 40
2.992119999999999
100
AcDbArc
 50
10.60655104177406
 51
79.39344895814992
  0
LINE
  5
1DA4
330
2034
100
AcDbEntity
  8
\U+7C97\U+5B9E\U+7EBF
100
AcDbLine
 10
913.1448701522392
 20
612.7003051465236
 30
0.0
 11
913.1448701522392
 21
609.1963751465307
 31
0.0
  0
ARC
  5
1DA5
330
2034
100
AcDbEntity
  8
\U+6807\U+6CE8\U+7EBF
100
AcDbCircle
 10
908.7748001522342
 20
614.6688051465235
 30
0.0
 40
9.842499999999999
100
AcDbArc
 50
270.0
 51
280.6065510418501
  0
ARC
  5
1DA6
330
2034
100
AcDbEntity
  8
\U+6807\U+6CE8\U+7EBF
100
AcDbCircle
 10
903.3023701522338
 20
609.1963751465238
 30
0.0
 40
9.842499999999999
100
AcDbArc
 50
349.393448958226
 51
0.0
  0
ARC
  5
1DA7
330
2034
100
AcDbEntity
  8
\U+6807\U+6CE8\U+7EBF
100
AcDbCircle
 10
910.0357066847873
 20
607.935468613976
 30
0.0
 40
2.992119999999999
100
AcDbArc
 50
280.6065510418501
 51
349.393448958226
  0
LINE
  5
1EBD
330
2034
100
AcDbEntity
  8
0
100
AcDbLine
 10
888.0986693561538
 20
620.5743042235332
 30
0.0
 11
908.7748001522346
 21
620.5743054865697
 31
0.0
  0
LINE
  5
1EBE
330
2034
100
AcDbEntity
  8
0
100
AcDbLine
 10
888.0986693561535
 20
604.8263066038741
 30
0.0
 11
908.7748001522342
 21
604.8263051465236
 31
0.0
  0
MTEXT
  5
2085
330
2034
100
AcDbEntity
  8
0
100
AcDbMText
 10
894.7294764804553
 20
609.725064387708
 30
0.0
 40
0.3937
 41
14.93397349915023
 71
     1
 72
     5
  3
{\fTimes New Roman|b0|i0|c0|p18;\H1.27x;Model : VIT-3218D   \H0.58x;IMPORTANT ! \PThis template is provided as a guide for Undermount cutout only. \PBefore beginning to cut countertop, compare physical dimension of the template and the cutout line wi
  1
th the actual sink unit for an accurate cut.\PHamatUSA is not responsible for any countertop, installation or labor charges due to failure to follow these instructions.\P\Lwww.Hamatusa.com }
  7
\U+C2A4\U+D0C0\U+C77C2
 73
     1
 44
1.0
  0
VIEWPORT
  5
74
330
2030
100
AcDbEntity
 67
     1
  8
0
100
AcDbViewport
 10
490.6337888969089
 20
297.0009369707932
 30
0.0
 40
1115.370256166983
 41
599.3755656108596
 68
     1
 69
     1
 12
490.6337888969089
 22
297.0009369707932
 13
0.0
 23
0.0
 14
10.0
 24
10.0
 15
10.0
 25
10.0
 16
0.0
 26
0.0
 36
1.0
 17
0.0
 27
0.0
 37
0.0
 42
50.0
 43
0.0
 44
0.0
 45
599.3755656108596
 50
0.0
 51
0.0
 72
  1000
 90
   819232
  1

281
     0
 71
     0
 74
     0
110
0.0
120
0.0
130
0.0
111
1.0
121
0.0
131
0.0
112
0.0
122
1.0
132
0.0
 79
     0
146
0.0
170
     0
  0
ENDSEC
  0
SECTION
  2
OBJECTS
  0
DICTIONARY
  5
200A
330
0
100
AcDbDictionary
281
     1
  3
ACAD_COLOR
350
202D
  3
ACAD_GROUP
350
200B
  3
ACAD_LAYOUT
350
202C
  3
ACAD_MATERIAL
350
200E
  3
ACAD_MLINESTYLE
350
2029
  3
ACAD_PLOTSETTINGS
350
202B
  3
ACAD_PLOTSTYLENAME
350
200C
  3
ACAD_TABLESTYLE
350
202E
  3
ACAD_VISUALSTYLE
350
2012
  3
AcDbVariableDictionary
350
2086
  0
DICTIONARY
  5
207B
330
2000
100
AcDbDictionary
280
     1
281
     1
  3
ACAD_LAYERSTATES
360
207C
  0
DICTIONARY
  5
202D
102
{ACAD_REACTORS
330
200A
102
}
330
200A
100
AcDbDictionary
281
     1
  0
DICTIONARY
  5
200B
102
{ACAD_REACTORS
330
200A
102
}
330
200A
100
AcDbDictionary
281
     1
  0
DICTIONARY
  5
202C
102
{ACAD_REACTORS
330
200A
102
}
330
200A
100
AcDbDictionary
281
     1
  3
Model
350
2037
  3
\U+5E03\U+5C401
350
2033
  0
DICTIONARY
  5
200E
102
{ACAD_REACTORS
330
200A
102
}
330
200A
100
AcDbDictionary
281
     1
  3
ByBlock
350
2010
  3
ByLayer
350
200F
  3
Global
350
2011
  0
DICTIONARY
  5
2029
102
{ACAD_REACTORS
330
200A
102
}
330
200A
100
AcDbDictionary
281
     1
  3
Standard
350
202A
  0
DICTIONARY
  5
202B
102
{ACAD_REACTORS
330
200A
102
}
330
200A
100
AcDbDictionary
281
     1
  0
ACDBDICTIONARYWDFLT
  5
200C
102
{ACAD_REACTORS
330
200A
102
}
330
200A
100
AcDbDictionary
281
     1
  3
Normal
350
200D
100
AcDbDictionaryWithDefault
340
200D
  0
DICTIONARY
  5
202E
102
{ACAD_REACTORS
330
200A
102
}
330
200A
100
AcDbDictionary
281
     1
  3
Standard
350
202F
  0
DICTIONARY
  5
2012
102
{ACAD_REACTORS
330
200A
102
}
330
200A
100
AcDbDictionary
281
     1
  3
2dWireframe
350
2018
  3
3D Hidden
350
201A
  3
3dWireframe
350
2019
  3
Basic
350
2017
  3
Brighten
350
201E
  3
ColorChange
350
2022
  3
Conceptual
350
201B
  3
Dim
350
201D
  3
Facepattern
350
2021
  3
Flat
350
2013
  3
FlatWithEdges
350
2014
  3
Gouraud
350
2015
  3
GouraudWithEdges
350
2016
  3
Linepattern
350
2020
  3
Realistic
350
201C
  3
Thicken
350
201F
  0
DICTIONARY
  5
2086
102
{ACAD_REACTORS
330
200A
102
}
330
200A
100
AcDbDictionary
281
     1
  3
CTABLESTYLE
350
2087
  0
DICTIONARY
  5
207C
102
{ACAD_REACTORS
330
207B
102
}
330
207B
100
AcDbDictionary
281
     1
  0
LAYOUT
  5
2037
102
{ACAD_REACTORS
330
202C
102
}
330
202C
100
AcDbPlotSettings
  1

  2
Send To OneNote 2010
  4

  6

 40
0.0
 41
0.0
 42
0.0
 43
0.0
 44
0.0
 45
0.0
 46
0.0
 47
0.0
 48
0.0
 49
0.0
140
0.0
141
0.0
142
1.0
143
1.0
 70
  1712
 72
     0
 73
     0
 74
     0
  7

 75
     0
147
1.0
 76
     0
 77
     2
 78
   300
148
0.0
149
0.0
100
AcDbLayout
  1
Model
 70
     1
 71
     0
 10
0.0
 20
0.0
 11
12.0
 21
9.0
 12
0.0
 22
0.0
 32
0.0
 14
0.0
 24
0.0
 34
0.0
 15
0.0
 25
0.0
 35
0.0
146
0.0
 13
0.0
 23
0.0
 33
0.0
 16
1.0
 26
0.0
 36
0.0
 17
0.0
 27
1.0
 37
0.0
 76
     0
330
2034
331
2039
  0
LAYOUT
  5
2033
102
{ACAD_REACTORS
330
202C
102
}
330
202C
100
AcDbPlotSettings
  1

  2
Send To OneNote 2010
  4

  6

 40
0.0
 41
0.0
 42
0.0
 43
0.0
 44
0.0
 45
0.0
 46
0.0
 47
0.0
 48
0.0
 49
0.0
140
0.0
141
0.0
142
1.0
143
1.0
 70
   688
 72
     0
 73
     0
 74
     5
  7

 75
    16
147
1.0
 76
     0
 77
     2
 78
   300
148
0.0
149
0.0
100
AcDbLayout
  1
\U+5E03\U+5C401
 70
     1
 71
     1
 10
0.0071835950613108
 20
0.0009369707933118
 11
841.0071835950612
 21
594.0009369707929
 12
0.0
 22
0.0
 32
0.0
 14
1.000000000000000E+20
 24
1.000000000000000E+20
 34
1.000000000000000E+20
 15
-1.000000000000000E+20
 25
-1.000000000000000E+20
 35
-1.000000000000000E+20
146
0.0
 13
0.0
 23
0.0
 33
0.0
 16
1.0
 26
0.0
 36
0.0
 17
0.0
 27
1.0
 37
0.0
 76
     0
330
2030
331
74
  0
MATERIAL
  5
2010
102
{ACAD_XDICTIONARY
360
208A
102
}
102
{ACAD_REACTORS
330
200E
102
}
330
200E
100
AcDbMaterial
  1
ByBlock
  0
MATERIAL
  5
200F
102
{ACAD_XDICTIONARY
360
2088
102
}
102
{ACAD_REACTORS
330
200E
102
}
330
200E
100
AcDbMaterial
  1
ByLayer
  0
MATERIAL
  5
2011
102
{ACAD_XDICTIONARY
360
208C
102
}
102
{ACAD_REACTORS
330
200E
102
}
330
200E
100
AcDbMaterial
  1
Global
  0
MLINESTYLE
  5
202A
102
{ACAD_REACTORS
330
2029
102
}
330
2029
100
AcDbMlineStyle
  2
STANDARD
 70
     0
  3

 62
   256
 51
90.0
 52
90.0
 71
     2
 49
0.5
 62
   256
  6
BYLAYER
 49
-0.5
 62
   256
  6
BYLAYER
  0
ACDBPLACEHOLDER
  5
200D
102
{ACAD_REACTORS
330
200C
102
}
330
200C
  0
TABLESTYLE
  5
202F
102
{ACAD_XDICTIONARY
360
208E
102
}
102
{ACAD_REACTORS
330
202E
102
}
330
202E
100
AcDbTableStyle
  3
Standard
 70
     0
 71
     0
 40
0.06
 41
0.06
280
     0
281
     0
  7
STANDARD
140
0.18
170
     2
 62
     0
 63
     7
283
     0
274
    -2
284
     1
 64
     0
275
    -2
285
     1
 65
     0
276
    -2
286
     1
 66
     0
277
    -2
287
     1
 67
     0
278
    -2
288
     1
 68
     0
279
    -2
289
     1
 69
     0
  7
STANDARD
140
0.25
170
     5
 62
     0
 63
     7
283
     0
274
    -2
284
     1
 64
     0
275
    -2
285
     1
 65
     0
276
    -2
286
     1
 66
     0
277
    -2
287
     1
 67
     0
278
    -2
288
     1
 68
     0
279
    -2
289
     1
 69
     0
  7
STANDARD
140
0.18
170
     5
 62
     0
 63
     7
283
     0
274
    -2
284
     1
 64
     0
275
    -2
285
     1
 65
     0
276
    -2
286
     1
 66
     0
277
    -2
287
     1
 67
     0
278
    -2
288
     1
 68
     0
279
    -2
289
     1
 69
     0
  0
VISUALSTYLE
  5
2018
102
{ACAD_REACTORS
330
2012
102
}
330
2012
100
AcDbVisualStyle
  2
2dWireframe
 70
     4
 71
     0
 72
     2
 73
     0
 90
        0
 40
-0.6
 41
-30.0
 62
     5
 63
     7
421
 16777215
 74
     1
 91
        4
 64
     7
 65
   257
 75
     1
175
     1
 42
1.0
 92
        0
 66
   257
 43
1.0
 76
     1
 77
     6
 78
     2
 67
     7
 79
     5
170
     0
171
     0
290
     0
174
     0
 93
        1
 44
0.0
173
     0
291
     0
 45
0.0
1001
ACAD
1000
AcDbSavedByObjectVersion
1070
     0
  0
VISUALSTYLE
  5
201A
102
{ACAD_REACTORS
330
2012
102
}
330
2012
100
AcDbVisualStyle
  2
3D Hidden
 70
     6
 71
     1
 72
     2
 73
     2
 90
        0
 40
-0.6
 41
-30.0
 62
     5
 63
     7
421
 16777215
 74
     2
 91
        2
 64
     7
 65
   257
 75
     2
175
     1
 42
40.0
 92
        0
 66
   257
 43
1.0
 76
     1
 77
     6
 78
     2
 67
     7
 79
     3
170
     0
171
     0
290
     0
174
     0
 93
        1
 44
0.0
173
     0
291
     0
 45
0.0
1001
ACAD
1000
AcDbSavedByObjectVersion
1070
     0
  0
VISUALSTYLE
  5
2019
102
{ACAD_REACTORS
330
2012
102
}
330
2012
100
AcDbVisualStyle
  2
3dWireframe
 70
     5
 71
     0
 72
     2
 73
     0
 90
        0
 40
-0.6
 41
-30.0
 62
     5
 63
     7
421
 16777215
 74
     1
 91
        4
 64
     7
 65
   257
 75
     1
175
     1
 42
1.0
 92
        0
 66
   257
 43
1.0
 76
     1
 77
     6
 78
     2
 67
     7
 79
     5
170
     0
171
     0
290
     0
174
     0
 93
        1
 44
0.0
173
     0
291
     0
 45
0.0
1001
ACAD
1000
AcDbSavedByObjectVersion
1070
     0
  0
VISUALSTYLE
  5
2017
102
{ACAD_REACTORS
330
2012
102
}
330
2012
100
AcDbVisualStyle
  2
Basic
 70
     7
 71
     1
 72
     0
 73
     1
 90
        0
 40
-0.6
 41
-30.0
 62
     5
 63
     7
421
 16777215
 74
     0
 91
        4
 64
     7
 65
   257
 75
     1
175
     1
 42
1.0
 92
        8
 66
     7
 43
1.0
 76
     1
 77
     6
 78
     2
 67
     7
 79
     5
170
     0
171
     0
290
     0
174
     0
 93
        1
 44
0.0
173
     0
291
     1
 45
0.0
1001
ACAD
1000
AcDbSavedByObjectVersion
1070
     0
  0
VISUALSTYLE
  5
201E
102
{ACAD_REACTORS
330
2012
102
}
330
2012
100
AcDbVisualStyle
  2
Brighten
 70
    12
 71
     2
 72
     2
 73
     0
 90
        0
 40
-0.6
 41
-30.0
 62
     5
 63
     7
421
 16777215
 74
     1
 91
        4
 64
     7
 65
   257
 75
     1
175
     1
 42
1.0
 92
        8
 66
     7
 43
1.0
 76
     1
 77
     6
 78
     2
 67
     7
 79
     5
170
     0
171
     0
290
     0
174
     0
 93
        1
 44
50.0
173
     0
291
     1
 45
0.0
1001
ACAD
1000
AcDbSavedByObjectVersion
1070
     0
  0
VISUALSTYLE
  5
2022
102
{ACAD_REACTORS
330
2012
102
}
330
2012
100
AcDbVisualStyle
  2
ColorChange
 70
    16
 71
     2
 72
     2
 73
     3
 90
        0
 40
-0.6
 41
-30.0
 62
     5
 63
     8
421
  8421504
 74
     1
 91
        4
 64
     7
 65
   257
 75
     1
175
     1
 42
1.0
 92
        8
 66
     8
424
  8421504
 43
1.0
 76
     1
 77
     6
 78
     2
 67
     7
 79
     5
170
     0
171
     0
290
     0
174
     0
 93
        1
 44
0.0
173
     0
291
     1
 45
0.0
1001
ACAD
1000
AcDbSavedByObjectVersion
1070
     0
  0
VISUALSTYLE
  5
201B
102
{ACAD_REACTORS
330
2012
102
}
330
2012
100
AcDbVisualStyle
  2
Conceptual
 70
     9
 71
     3
 72
     2
 73
     0
 90
        0
 40
-0.6
 41
-30.0
 62
     5
 63
     7
421
 16777215
 74
     2
 91
        2
 64
     7
 65
   257
 75
     1
175
     1
 42
40.0
 92
        8
 66
     7
 43
1.0
 76
     1
 77
     6
 78
     2
 67
     7
 79
     3
170
     0
171
     0
290
     0
174
     0
 93
        1
 44
0.0
173
     0
291
     0
 45
0.0
1001
ACAD
1000
AcDbSavedByObjectVersion
1070
     0
  0
VISUALSTYLE
  5
201D
102
{ACAD_REACTORS
330
2012
102
}
330
2012
100
AcDbVisualStyle
  2
Dim
 70
    11
 71
     2
 72
     2
 73
     0
 90
        0
 40
-0.6
 41
-30.0
 62
     5
 63
     7
421
 16777215
 74
     1
 91
        4
 64
     7
 65
   257
 75
     1
175
     1
 42
1.0
 92
        8
 66
     7
 43
1.0
 76
     1
 77
     6
 78
     2
 67
     7
 79
     5
170
     0
171
     0
290
     0
174
     0
 93
        1
 44
-50.0
173
     0
291
     1
 45
0.0
1001
ACAD
1000
AcDbSavedByObjectVersion
1070
     0
  0
VISUALSTYLE
  5
2021
102
{ACAD_REACTORS
330
2012
102
}
330
2012
100
AcDbVisualStyle
  2
Facepattern
 70
    15
 71
     2
 72
     2
 73
     0
 90
        0
 40
-0.6
 41
-30.0
 62
     5
 63
     7
421
 16777215
 74
     1
 91
        4
 64
     7
 65
   257
 75
     1
175
     1
 42
1.0
 92
        8
 66
     7
 43
1.0
 76
     1
 77
     6
 78
     2
 67
     7
 79
     5
170
     0
171
     0
290
     0
174
     0
 93
        1
 44
0.0
173
     0
291
     1
 45
0.0
1001
ACAD
1000
AcDbSavedByObjectVersion
1070
     0
  0
VISUALSTYLE
  5
2013
102
{ACAD_REACTORS
330
2012
102
}
330
2012
100
AcDbVisualStyle
  2
Flat
 70
     0
 71
     2
 72
     1
 73
     1
 90
        2
 40
-0.6
 41
30.0
 62
     5
 63
     7
421
 16777215
 74
     0
 91
        4
 64
     7
 65
   257
 75
     1
175
     1
 42
1.0
 92
        8
 66
     7
 43
1.0
 76
     1
 77
     6
 78
     2
 67
     7
 79
     5
170
     0
171
     0
290
     0
174
     0
 93
       13
 44
0.0
173
     0
291
     1
 45
0.0
1001
ACAD
1000
AcDbSavedByObjectVersion
1070
     0
  0
VISUALSTYLE
  5
2014
102
{ACAD_REACTORS
330
2012
102
}
330
2012
100
AcDbVisualStyle
  2
FlatWithEdges
 70
     1
 71
     2
 72
     1
 73
     1
 90
        2
 40
-0.6
 41
30.0
 62
     5
 63
     7
421
 16777215
 74
     1
 91
        4
 64
     7
 65
   257
 75
     1
175
     1
 42
1.0
 92
        0
 66
   257
 43
1.0
 76
     1
 77
     6
 78
     2
 67
     7
 79
     5
170
     0
171
     0
290
     0
174
     0
 93
       13
 44
0.0
173
     0
291
     1
 45
0.0
1001
ACAD
1000
AcDbSavedByObjectVersion
1070
     0
  0
VISUALSTYLE
  5
2015
102
{ACAD_REACTORS
330
2012
102
}
330
2012
100
AcDbVisualStyle
  2
Gouraud
 70
     2
 71
     2
 72
     2
 73
     1
 90
        2
 40
-0.6
 41
30.0
 62
     5
 63
     7
421
 16777215
 74
     0
 91
        4
 64
     7
 65
   257
 75
     1
175
     1
 42
1.0
 92
        0
 66
     7
 43
1.0
 76
     1
 77
     6
 78
     2
 67
     7
 79
     5
170
     0
171
     0
290
     0
174
     0
 93
       13
 44
0.0
173
     0
291
     1
 45
0.0
1001
ACAD
1000
AcDbSavedByObjectVersion
1070
     0
  0
VISUALSTYLE
  5
2016
102
{ACAD_REACTORS
330
2012
102
}
330
2012
100
AcDbVisualStyle
  2
GouraudWithEdges
 70
     3
 71
     2
 72
     2
 73
     1
 90
        2
 40
-0.6
 41
30.0
 62
     5
 63
     7
421
 16777215
 74
     1
 91
        4
 64
     7
 65
   257
 75
     1
175
     1
 42
1.0
 92
        0
 66
   257
 43
1.0
 76
     1
 77
     6
 78
     2
 67
     7
 79
     5
170
     0
171
     0
290
     0
174
     0
 93
       13
 44
0.0
173
     0
291
     1
 45
0.0
1001
ACAD
1000
AcDbSavedByObjectVersion
1070
     0
  0
VISUALSTYLE
  5
2020
102
{ACAD_REACTORS
330
2012
102
}
330
2012
100
AcDbVisualStyle
  2
Linepattern
 70
    14
 71
     2
 72
     2
 73
     0
 90
        0
 40
-0.6
 41
-30.0
 62
     5
 63
     7
421
 16777215
 74
     1
 91
        4
 64
     7
 65
   257
 75
     7
175
     7
 42
1.0
 92
        8
 66
     7
 43
1.0
 76
     1
 77
     6
 78
     2
 67
     7
 79
     5
170
     0
171
     0
290
     0
174
     0
 93
        1
 44
0.0
173
     0
291
     1
 45
0.0
1001
ACAD
1000
AcDbSavedByObjectVersion
1070
     0
  0
VISUALSTYLE
  5
201C
102
{ACAD_REACTORS
330
2012
102
}
330
2012
100
AcDbVisualStyle
  2
Realistic
 70
     8
 71
     2
 72
     2
 73
     0
 90
        0
 40
-0.6
 41
-30.0
 62
     5
 63
     7
421
 16777215
 74
     1
 91
        0
 64
     7
 65
   257
 75
     1
175
     1
 42
1.0
 92
        8
 66
     8
424
  7895160
 43
1.0
 76
     1
 77
     6
 78
     2
 67
     7
 79
     5
170
     0
171
     0
290
     0
174
     0
 93
       13
 44
0.0
173
     0
291
     0
 45
0.0
1001
ACAD
1000
AcDbSavedByObjectVersion
1070
     0
  0
VISUALSTYLE
  5
201F
102
{ACAD_REACTORS
330
2012
102
}
330
2012
100
AcDbVisualStyle
  2
Thicken
 70
    13
 71
     2
 72
     2
 73
     0
 90
        0
 40
-0.6
 41
-30.0
 62
     5
 63
     7
421
 16777215
 74
     1
 91
        4
 64
     7
 65
   257
 75
     1
175
     1
 42
1.0
 92
       12
 66
     7
 43
1.0
 76
     1
 77
     6
 78
     2
 67
     7
 79
     5
170
     0
171
     0
290
     0
174
     0
 93
        1
 44
0.0
173
     0
291
     1
 45
0.0
1001
ACAD
1000
AcDbSavedByObjectVersion
1070
     0
  0
DICTIONARYVAR
  5
2087
102
{ACAD_REACTORS
330
2086
102
}
330
2086
100
DictionaryVariables
280
     0
  1
STANDARD
  0
DICTIONARY
  5
208A
330
2010
100
AcDbDictionary
280
     1
281
     1
  3
ACAD_XREC_ROUNDTRIP
360
208B
  0
DICTIONARY
  5
2088
330
200F
100
AcDbDictionary
280
     1
281
     1
  3
ACAD_XREC_ROUNDTRIP
360
2089
  0
DICTIONARY
  5
208C
330
2011
100
AcDbDictionary
280
     1
281
     1
  3
ACAD_XREC_ROUNDTRIP
360
208D
  0
DICTIONARY
  5
208E
330
202F
100
AcDbDictionary
280
     1
281
     1
  3
ACAD_XREC_ROUNDTRIP
360
208F
  0
XRECORD
  5
208B
102
{ACAD_REACTORS
330
208A
102
}
330
208A
100
AcDbXrecord
280
     1
102
MATERIAL
148
0.0
149
0.0
149
0.0
 93
        0
 94
       63
282
     0
 72
     1
 77
     1
171
     1
175
     1
179
     1
273
     0
  0
XRECORD
  5
2089
102
{ACAD_REACTORS
330
2088
102
}
330
2088
100
AcDbXrecord
280
     1
102
MATERIAL
148
0.0
149
0.0
149
0.0
 93
        0
 94
       63
282
     0
 72
     1
 77
     1
171
     1
175
     1
179
     1
273
     0
  0
XRECORD
  5
208D
102
{ACAD_REACTORS
330
208C
102
}
330
208C
100
AcDbXrecord
280
     1
102
MATERIAL
148
0.0
149
0.0
149
0.0
 93
        0
 94
       63
282
     0
 72
     1
 77
     1
171
     1
175
     1
179
     1
273
     0
  0
XRECORD
  5
208F
102
{ACAD_REACTORS
330
208E
102
}
330
208E
100
AcDbXrecord
280
     1
102
ACAD_ROUNDTRIP_PRE2007_TABLESTYLE
 90
      512
 91
        0
  1

 92
      512
 93
        0
  2

 94
      512
 95
        0
  3

  0
ENDSEC
  0
EOF
